Acordes y tablaturas para guitarra

Acordes y Tablaturas
Usuario: Password:

Buscar:
Acordes y Tablaturas >> Letra S >> Acordes de Seru giran >> Noche de perros
Bajo de Noche de perros, Seru giran

Noche de perros

Seru giran






*Los Slides se deben al fretles, trate de reproducir lo mejor que se pueda.
 (para que suene lo mas parecido posible, subanle los agudos, 
hasta que distorcione un poco)

* Las notas entre corchetes continuan sonando:
E|--[5          ]--|
Sigue sonando hasta que corta el parentesis.
* Las notas entre parentesis son harmonicos en el traste mensionado:
E|--(5)--|
se toca el harmonico del traste 5, en la cuarta cuerda.
* Las X son notas murtas.

INTRO EN GUITARRA: E - C

G|-9/12--8/11-9---|-9/12-9/12-11-11-9--|
D|--------------9-|------------------9-|
A|----------------|--------------------|
E|----------------|--------------------|

G|-12/16-14--14/19--16-----------------|
D|-------------------------------------|
A|-------------------------------------|
E|-------------------------------------|

G|-9/12--8/11-9---|-9/12-9/12-14-11-11-9--|
D|--------------9-|---------------------9-|
A|----------------|-----------------------|
E|----------------|-----------------------|

G|-12/16-14--14/19--16-12/14-10/12-9/11-9/11/9-|
D|---------------------------------------------|
A|---------------------------------------------|
E|---------------------------------------------|

VERSO 1
G|-----(5)-----------(5)-----------(4)-(5)-------(4)-(5)----|
D|--------(5)-----------(5)---------------(5)-----------(5)-|
A|-----------(5)-----------(5)-[3              ]------------|
E|-[0          ]-[0          ]------------------------------|

G|-----(5)-----------(5)-----------(4)-(5)-----------(5)----|
D|--------(5)-----------(5)---------------(5)--------(5)----|
A|-----------(5)-----------(5)-[3              ]------------|
E|-[0          ]-[0          ]------------------------------|

VERSO 2
G|----------------9/5-|----------------------|
D|----------------9/5-|----------------------|
A|------------5/7-7/3-|----------------------|
E|--X-3--567----------|--X-3--5/7-7/5-----7--|

SOLO N1
G|----15/19-14/16-14--------------14h1614-14---------------|
D|------------------17--1716141617------------171614-------|
A|--------------------------------------------------17--15-|
E|-[0                                                    ]-|

G|---------------------------------------------------|
D|---------14-14/16-14-----15/17-15/17-19-1616-14----|
A|---141517------------14-------------------------14-|
E|-15------------------------------------------------|

G|-12/16-14--14/19--16-12/14-10/12--11-10-9----|
D|---------------------------------------------|
A|---------------------------------------------|
E|---------------------------------------------|

VERSO 3
G|----/9---------/9-9------------/9-9---------/9-9----|
D|---------------------5---------------7-----------10-|
A|-------7---------------7----------------------------|
E|-[0      ]-[0        ]--[8          ]-8[8         ]-|

G|----/9---------/9-9-----------/9-9------/9-9--11--|
D|-------5------------5-------------10--------10----|
A|---------7------------7-------------7-----------7-|
E|-[0      ]-[0        ]-[8          ]-[8        ]--|

VERSO 2
G|----------------9/5-|----------------------|-----|
D|----------------9/5-|----------------------|-----|
A|------------5/7-7/3-|----------------------|-----|
E|--X-3--567----------|--X-3--5/7-7/5-----7--|--0--|

G|--------------14h1614h16-13h1413h14-14-----------------------------|
D|---------------------------------------171614171614--1614----------|
A|----------14---------------------------------------17----1715------|
E|-0--121415---------------------------------------------------15/17-|

G|---------------------------------------------------1416-|
D|---------14151617-16-1614-17-1616-14---------141617-----|
A|---141617------------------------------141617-----------|
E|-17-----------------------------------------------------|

=> minuto: 2:31

CORTE
G|---------------------------------------|
D|-------------------------------------5-|
A|-------------------------------------5-|
E|-0---0-0--5-55---5---88---8----0-----3-|

G|-9/12--8/11-9---|-9/12-9/12-11-11-9--|
D|--------------9-|------------------9-|
A|----------------|--------------------|
E|----------------|--------------------|

G|-12/16-14--14/19--16-----------------|
D|-------------------------------------|
A|-------------------------------------|
E|-------------------------------------|

G|-9/12--8/11-9---|-9/12-9/12-11-11--9--|
D|--------------9-|-------------------9-|
A|----------------|---------------------|
E|----------------|---------------------|

G|-12/16-14--14/19--16---17-16-14---12-9-|
D|---------------------------------------|
A|---------------------------------------|
E|---------------------------------------|

G|---------------/9-9------------/9-9---------/9-9----|
D|---------------------5---------------7-----------10-|
A|-----------------------7----------------------------|
E|-[0      ]-[0        ]--[8          ]-8[8         ]-|

G|--------9--11-12----------------------------------|
D|------------------------9---9h10------------------|
A|--------------------------------------9---9h10----|
E|-[0      ]-[0        ]-[8          ]-[8        ]0-|

G|----------------9/5-|----------------------|
D|----------------9/5-|----------------------|
A|------------5/7-7/3-|----------------------|
E|--X-3--567----------|--X-3--5/7-7/5-----7--|

G|--------------14h1614h16-13h1413h14-14-----------------------------|
D|---------------------------------------171614171614--1614----------|
A|----------14---------------------------------------17----1715------|
E|-0--121415---------------------------------------------------15/17-|

G|---------------------------------------------------1416-|
D|---------14151617-16-1614-17-1616-14---------141617-----|
A|---141617------------------------------141617-----------|
E|-17-----------------------------------------------------|


G|----------------------------------|
D|----------------------------------|
A|----------------------------------|
E|-0---0-0--5-55---5---88---8----0--|

(SOLO DE GUITARRA)
G|-----------------------8/99-------|
D|----------------------------------|
A|----6/77--------------------------|
E|-0---0-0--5-55---5---88---8----0--|

G|-----------------------8/99-------|
D|----------------------------------|
A|----6/77--------------------------|
E|-0---0-0--5-55---5---88---8----0--|

G|----------------------------------|
D|----------8-9--------87-8-9-------|
A|-7-8-9--------8-9-----------------|
E|0------------------------------0--|

G|----------------------------------|
D|----------8-9--------87-8-9-------|
A|-7-8-9--------8-9-----------------|
E|0------------------------------0--|

G|----------------------------------|
D|----------8-9--------87-8-9-------|
A|-7-8-9--------8-9-----------------|
E|0------------------------------0--|

G|----------------------------------|
D|----------8-9--------87-8-9-------|
A|-7-8-9--------8-9-----------------|
E|0------------------------------0--|

G|----------------------------------|
D|----------8-9--------87-8-9-------|
A|-7-8-9--------8-9-----------------|
E|0------------------------------0--|

* Se que la transcripcion tiene algunos errores, pero manejenlo 
ustedes eso. :)

Fuente original: LaCuerda
Colaborador original: Rodrigo Magariños [[email protected]]

Que te parecio? Calificalo con estrellas!!

Rating: 5.3/10 (20 votos)

Este fichero es trabajo propio de su transcriptor y representa su interpretación personal de la canción. El material contenido en esta página es para exclusivo uso privado, por lo que se prohibe su reproducción o retransmisión, así como su uso para fines comerciales.


Deja tus comentarios:

Letras de Seru giran
Letras de canciones | Musica Independiente