Acordes y tablaturas para guitarra

Acordes y Tablaturas
Usuario: Password:

Buscar:
Acordes y Tablaturas >> Letra S >> Acordes de Santana >> Smooth
Tablatura de Smooth, Santana

Smooth

Santana






Por fin pude sacar el solo del final... ahi les va.. disfrutenlo
INTRO:

   e||--------------------------------------------------------------------|
   B||-----------10~~~---9-10-12-12b(13)r12-10-12-12b(13)-10-10~~~--------|
   G||-9-10-12-9----------------------------------------------------------|
   D||--------------------------------------------------------------------|
   A||--------------------------------------------------------------------|
   E||--------------------------------------------------------------------|
                              2  2             2  2
       1 2  4  1 2       1 1  3  3          1  3  3       1  1
                              

   e||-------------------5------------------------------------------------|
   B||--------------------------------------------------------------------|
   G||-7b(9)r7b(9)r7b(9)---7-5---7-5-4-------4----------------------------|
   D||---------------------------------7-6-7---7~~~-----------------------|
   A||--------------------------------------------------------------------|
   E||--------------------------------------------------------------------|
       2                                       2
       3                 1 3 1   4 2 1 4 3 4 1 3


   Man it’s a hot one 
   Like seven inches from the midday sun 
   I hear you whisper & the words melt everyone 
   But you stay so cool (0:31)


   e||--------------------------------------------------------------------|
   B||----------------------12-13-12-15-13-12-------12--------------------|
   G||----------------------------------------14-13----13-14~~~-----------|
   D||----------10-12b(13)------------------------------------------------|
   A||----10-12-----------------------------------------------------------|
   E||-12-----------------------------------------------------------------|
                                                          2
       3  1  3  1  2        1  2  1  4  2  1  3  2  1  2  3
       |<--------------->| Carlos does not play this part on the video
                                 

   My mu-equita, my Spanish harlem mona lisa (0:39)


   e||-11b(12)-11b(12)-9/10-12~~~-----------------------------------------|
   B||--------------------------------------------------------------------|
   G||--------------------------------------------------------------------|
   D||--------------------------------------------------------------------|
   A||--------------------------------------------------------------------|
   E||--------------------------------------------------------------------|
       2       2            2
       3       3       1    3

   Your my reason for reason 
   The step in my groove (0:48)


   e||--------------17----------------------------------------------------|
   B||-15b(17)-(17)----17-15-17-1715-13-12-15-17~~----------------------|
   G||--------------------------------------------------------------------|
   D||--------------------------------------------------------------------|
   A||--------------------------------------------------------------------|
   E||--------------------------------------------------------------------|
       1       1
       2       2    3  2  1  3  3     2  1  2  3


   BRIDGE:

   And if you say this life ain’t good enough 
   I would give my world to lift you up 
   I could change my life to better suit your mood (1:04)

   e||--------------------------------------------------------------------|
   B||-------------12-13p12-----------------------------------------------|
   G||----------14----------14--------------------------------------------|
   D||-12-14-15-----------------------------------------------------------|
   A||--------------------------------------------------------------------|
   E||--------------------------------------------------------------------|

       1  3  4  3  1  2  1  3


Cause youre so smooth (1:09)


   e||---------------------------17---------------------------------------|
   B||-15b(17)-(17)-15b(17)-(17)----17-15-17-(17)r15-13-------------------|
   G||--------------------------------------------------------------------|
   D||--------------------------------------------------------------------|
   A||--------------------------------------------------------------------|
   E||--------------------------------------------------------------------|
       1       1    1       1                1
       2       2    2       2    3  2  1  3  2       1 


   e||--------------------------------------------------------------------|
   B||-15p13-15p13-15p13--------------------------------------------------|
   G||-------------------14~~~--------------------------------------------|
   D||--------------------------------------------------------------------|
   A||--------------------------------------------------------------------|
   E||--------------------------------------------------------------------|

       3  1  3  1  3  1  2    
                          

   CHORUS: 
   And just like the ocean under the moon 
   Well that’s the same emotion that I get from you 
   You got the kind of lovin that can be so smooth 
   Gimme your heart, make it real 
   Or else forget about it (1:29)


   e||------------------------------------------------11b(12)r11p8-------|
   B||--10~~~-9-10-12-12b(13)r12-10-12-12b(13)-10-10~-------------h10~~~-|
   G||-------------------------------------------------------------------|
   D||-------------------------------------------------------------------|
   A||-------------------------------------------------------------------|
   E||-------------------------------------------------------------------|
                   2  2             2  2              2          
        2     1 1  3  3          1  3  3       1  1   3         1 2


   I’ll tell you one thing 
   If you would leave it would be a crying shame (1:42)

   e||--------------------------------------------------------------------|
   B||-7b(9)-7~~~---------------------------------------------------------|
   G||--------------------------------------------------------------------|
   D||--------------------------------------------------------------------|
   A||--------------------------------------------------------------------|
   E||--------------------------------------------------------------------|
       2     2
       3     3


   In every breath and every word I hear your name calling me out (1:50)

   e||--------------------------------------------------------------------|
   B||-15b(17)-15b(17)r15-13-12----12-13-12-15-13-12----------12----------|
   G||--------------------------14-------------------14-13-14----14------|
   D||--------------------------------------------------------------------|
   A||--------------------------------------------------------------------|
   E||--------------------------------------------------------------------|
       2       2
       3       3          2  1  3  1  2  1  4  2  1  3  2  3  1  3


   Out from the barrio, you hear my rhythm from your radio 
   You feel the turning of the world so soft and slow 
   Turning you round and round (2:09)


   e||--------------17----------------------------------------------------|
   B||-15b(17)-(17)----17-15-17-(17)r15-13-15-17-------------------------|
   G||--------------------------------------------------------------------|
   D||--------------------------------------------------------------------|
   A||--------------------------------------------------------------------|
   E||--------------------------------------------------------------------|
       1       1                1
       2       2    3  2  1  3  2       1  2  3  


   BRIDGE:

   And if you say this life ain’t good enough 
   I would give my world to lift you up 
   I could change my life to better suit your mood (2:24)

   e||--------------------------------------------------------------------|
   B||-------------12-13---15-13-12-13-15---------------------------------|
   G||----------14--------------------------------------------------------|
   D||-12-14-15-----------------------------------------------------------|
   A||--------------------------------------------------------------------|
   E||--------------------------------------------------------------------|

       1  3  4  3  1  2    4  2  1  2  4


   Cause youre so smooth (2:28)

   e||---------------------------17---------------------------------------|
   B||-15b(17)-(17)-16b(17)-(17)----17-15-17-(17)r15-13-------------------|
   G||--------------------------------------------------------------------|
   D||--------------------------------------------------------------------|
   A||--------------------------------------------------------------------|
   E||--------------------------------------------------------------------|
       1       1    1       1                1
       2       2    2       2    3  2  1  3  2       1  


   e||--------------------------------------------------------------------|
   B||-15p13-15p13-15p13--------------------------------------------------|
   G||-------------------14~-16~-14-16-17~-17/19-19~----------------------|
   D||--------------------------------------------------------------------|
   A||--------------------------------------------------------------------|
   E||--------------------------------------------------------------------|

       3  1  3  1  3  1  2   2   1  2  3   3     3

                                                                  Am  
   e||-12-13-12-------12b(13)-------------------------------------X-------|
   B||----------15-13---------13-15-13-15-13-13b(1/4)-13b(1/4)-12-13-----|
   G||------------------------------------------------------------14-----|
   D||---------------------------------------------------optional-14-----|
   A||---------------------------------------------------optional-12-----|
   E||--------------------------------------------------------------------|
                                                                  1
       1  2  1  4  2  1       2  4  2  4  2  2        2        1  2
                                                                  

   CHORUS: 
   And just like the ocean under the moon 
   Well that’s the same emotion that I get from you 
   You got the kind of lovin that can be so smooth 
   Gimme your heart, make it real 
   Or else forget about it (2:47)

Solo
   e||--------------------------------------------------------------------|
   B||-10-9-9-12b(13)r12-10-12-10-9---9-12-13-12-10-----------------------|
   G||------------------------------9-------------------------------------|
   D||--------------------------------------------------------------------|
   A||--------------------------------------------------------------------|
   E||--------------------------------------------------------------------|
              2          1  4  2  1 2 1 3  4  3  1
       2  1 1 3

   e||--------------------------------------------------------------------|
   B||-12-9-12-13-12-9-9h12-10-10-----------------------------------------|
   G||-----------------------------8/9-8/9-7-9~~~~------------------------|
   D||--------------------------------------------------------------------|
   A||--------------------------------------------------------------------|
   E||--------------------------------------------------------------------|
                             
       3  1 3  4  3  1 1 3  1  1   2   2   1 3

   e||-15b(17)-15b(17)-15b(17)r15-12----12-12-----------------------------|
   B||-------------------------------15-----------------------------------|
   G||--------------------------------------------------------------------|
   D||--------------------------------------------------------------------|
   A||--------------------------------------------------------------------|
   E||--------------------------------------------------------------------|
       2       2       2          
       3       3       3          1  4  1  1

   e||-19b(20)r19-17-17-12h13p12----12-17----12---------------------------|
   B||---------------------------15-------15----15-----------------------|
   G||--------------------------------------------------------------------|
   D||--------------------------------------------------------------------|
   A||--------------------------------------------------------------------|
   E||--------------------------------------------------------------------|
       2          
       3          1  1  1  2  1  3  1  4  3  1  3


   e||----17-19-20-19-20-19-20-19-20-19-20-19-20-20b(22)------------------|
   B||-17-----------------------------------------------------------------|
   G||--------------------------------------------------------------------|
   D||--------------------------------------------------------------------|
   A||--------------------------------------------------------------------|
   E||--------------------------------------------------------------------|
                                                 2
       1  1  2  3  2  3  2  3  2  3  2  3  2  3  3


CHORUS: 
   And just like the ocean under the moon 
   Well that’s the same emotion that I get from you 
   You got the kind of lovin that can be so smooth 
   Gimme your heart, make it real 
   Or else forget about it (3:43)
                                 

   e||----------------------------------------------11b(12)---------------|
   B||-10~~~-9-10-12-12b(13)r12-10-12-12b(13)-10-10~----------------------|
   G||--------------------------------------------------------------------|
   D||--------------------------------------------------------------------|
   A||--------------------------------------------------------------------|
   E||--------------------------------------------------------------------|
                  2  2             2  2             2
       2     1 1  3  3          1  3  3       1  1  3


   e||-----------------------------------12-------------------------------|
   B||-10~~~-9-10-12-12b(13)r12-10-12-13----13-12h13p12-------------------|
   G||--------------------------------------------------14-12-14~--7b(9)--|
   D||--------------------------------------------------------------------|
   A||--------------------------------------------------------------------|
   E||--------------------------------------------------------------------|
                  2  2                                             2
       2     1 1  3  3          1  1  2  1  2  1  2  1  3   1  3   3

Fuente original: LaCuerda
Colaborador original: Antonio Lugo "santana man" [[email protected]]

Que te parecio? Calificalo con estrellas!!

Rating: 8.0/10 (159 votos)

Este fichero es trabajo propio de su transcriptor y representa su interpretación personal de la canción. El material contenido en esta página es para exclusivo uso privado, por lo que se prohibe su reproducción o retransmisión, así como su uso para fines comerciales.


Deja tus comentarios:

Letras de Santana
Letras de canciones | Musica Independiente