Enviado por: Anonimo
Agrandar Letra
Reducir Letra
Imprimir



Santana, Samba pa ti

Parte 1
------------------*-------*---------*-------------*
------------------*-6-6-6-*---------*--9-9-7-6----*
-------------7----*-------*-8-6/8-8-*-------------*
---------6-8--6---*-------*---------*-------------*
-6-8-9----------8-*-------*---------*-------------*
------------------*-------*---------*-------------*

normalmente se toca lo que va entre asteriscos a la
izquierda(-6-6-6-), excepto cuando se señala, que se
toca lo de la derecha (-9-9-7-6-)

Parte 2
------------------10-10-----------------------
-10-12------10-12-------12-10------10---------
-------12-9-------------------12-9----9-9-9---
--------------------------------------------12
----------------------------------------------
----------------------------------------------


Parte 3
----------------------------------------------------
-----------------------------12--10-20------------10
-9------------9---------9--------------12-12-9-12---
---12-10/9/10------9-12---12------------------------
----------------12----------------------------------
----------------------------------------------------


Parte 4
----------------------------------------------------
-8-8-8--10--12-12--15--17-17--12-10-------------8---
------------------------------------12-11-11-12---12
----------------------------------------------------
----------------------------------------------------
----------------------------------------------------


Parte 5
-----------------------------------
----------8-8-10---------8-10------
-7-7-7--9--------7-7-7-9------7/9/7
-----------------------------------
-----------------------------------
-----------------------------------

Las partes se suceden asi:

1-1-2-3
1-1*-2-3
4-4-5-5

Quiero dedicar mi primera transcripción a mi colega leti

Fuente original: LaCuerda
Colaborador original: alex joey [[email protected]]
Aviso: Este fichero es trabajo propio de su transcriptor y representa su interpretación personal de la canción. El material contenido en esta página es para exclusivo uso privado, por lo que se prohibe su reproducción o retransmisión, así como su uso para fines comerciales.

Califica esta canción


Comentarios en Facebook