Enviado por:
Anonimo

Ricardo Arjona, Duerme

Imprimir
Una cancion muy chida , pero dificilisima
Esto es el inicio de la canción ( Piano ,el intro ) en si todo la canción lleva la misma base
                                                       
E||--------------------------|------------------------|
B||-----------------------2--|--------2-2-2---2---2---|
G||-----------1--3--1--------|--------1-1-1-------1-3-|
D||--------4-----------4-----|----------------4-------|
A||-----4--------------------|------------------------|
E||--2-----------------------|------------------------|


                                                    
-------------------------|-------------------------|
----------------------2--|--------2-2-2---2--2-2---|
-------------1-----------|--------1-1-1----------3-|
-------3--4-----3--4-----|----------------4--3-4---|
----1--------------------|-------------------------|
-------------------------|-------------------------|


                                                                               
-----------------14---------|----11----9------------|-------------------------|
----------------------------|-----------------------|-------------------------|
-----------1--3---------11--|---------------11------|----------------------6--|
--------4---------------11--|-----------------------|-------------6-----------|
-----4-----------11--9------|-----------------------|-------8--9-----8--9-----|
--2-------------------------|-----------------------|----6--------------------|


                                                                           
------------------------|-----------------2-------|-----------2--------2--|
------------------------|--------------2----------|--2--------------2-----|
--------6-6-6---6-3--6--|-----------3-------------|--1-----------3--------|
--------6-6-6---6----6--|--------4----------------|--3--------------------|
------------------------|-----4-------------------|-----------------------|
------------------------|--2-------------------2--|--1--------------------|


                                                                  
--2--------2---------|--2----------------|--2--------------2-----|
---------------------|-------------------|--4--------2--4--2-----|
--3--------3----3----|--1----------------|--4--------------4-----|
--1--------1---------|-------------------|-----------------------|
---------------------|--4----------------|--2-----------------2--|
---------------------|-------------------|-----------------------|


                                                                  
--2--------2--------|--2--------2------2--|--2--------1----------|
--2--------2--------|--3--------3---------|--6-------------------|
--------------------|---------------------|--3--------3----------|
--------------------|---------------------|----------------1-----|
--1-----------------|--1------------------|--6----------------4--|
--------------------|---------------------|----------------------|


                                                                             
--------------------|--------------------------|--------14-14-14--------14--|
--4--------6--------|-----------------------2--|----------------------------|
--6--------6--------|-----------1--3--1--------|-------------------11-------|
--4-----------------|--------4-----------4-----|----------------------------|
-----------4--------|-----4--------------------|----------------------------|
--7-----------------|--2-----------------------|----------------------------|


                                                                      
----7------------------|-----------------------|--1--------4---------|
------------4--2--0----|------------2----------|---------------------|
------------4--3--1----|--3---------3--3-------|--3--------3---------|
------------4--4--4----|--4------4--6----------|--0--------0------0--|
----6-------6--4--2----|--4---------9-------4--|---------------------|
--2--------------------|------------9----------|---------------------|




 Esto es la lira electrica....
Que va casi al final

------------------|----------------------------------------------|
------------------|----------------------------------------------|
------------------|----------2-1-0-------------------------------|
------------------|----------------4-2-1-0-----------------------|
------------------|----------------3-------4-3-2-1---------------|
------------------|------------------------------0-4-3-2-1-0-----|


                                                       
----------2--4--6--4--2--9--|-------7----6-7-6--4-----|
-------2--------------------|-------------------------|
----------------------------|-------------------------|
----------------------------|-------------------------|
----------------------------|-------------------------|
----------------------------|-------------------------|


                                                                          
-----------1--2--1-----6--|-------4----2----------|----------------------|
--------4-----------4-----|-----------------2-----|---2----4----4--------|
-----3--------------------|-----------------------|----------------------|
--------------------------|-----------------------|----------------------|
--------------------------|-----------------------|----------------------|
--------------------------|-----------------------|----------------------|


                                                                          
---4----6----4----------|---4-----------------|--------2--4--6--4--2--9--|
------------------4-----|---------------------|-----2--------------------|
------------------------|---------------------|--------------------------|
------------------------|---------------------|--------------------------|
------------------------|---------------------|--------------------------|
------------------------|---------------------|--------------------------|


                                                                            
-------7----6----4-----|-----------1--2--1-----6--|-------9----------------|
-----------------------|--------4-----------4-----|------------9------7-9--|
-----------------------|-----3--------------------|------------------------|
-----------------------|--------------------------|------------------------|
-----------------------|--------------------------|------------------------|
-----------------------|--------------------------|------------------------|


                                                                             
-----------------------|------------6------4-2--|---4--------9--14--16--18--|
---7-----------7-------|---9--------------------|---------------------------|
------------8-------8--|------------------------|---------------------------|
-----------------------|------------------------|---------------------------|
-----------------------|------------------------|---------------------------|
-----------------------|------------------------|---------------------------|


                                                             
-------------16--18--16--14--21--|-------19----18----16-----|
---------19----------------------|--------------------------|
-----18--------------------------|--------------------------|
---------------------------------|--------------------------|
---------------------------------|--------------------------|
---------------------------------|--------------------------|


                                                                
-------------13--14--13--11--18--|---------16--14---13---11-9--|
---------16----------------------|-----------------------------|
-----15--------------------------|-----------------------------|
---------------------------------|-----------------------------|
---------------------------------|-----------------------------|
---------------------------------|-----------------------------|



                                                                               
---9----11--11----------|---16----18----18------16-14--|---16-----------------|
------------------------|------------------------------|----------------------|
------------------------|------------------------------|----------------------|
------------------------|------------------------------|----------------------|
------------------------|------------------------------|----------------------|
------------------------|------------------------------|----------------------|


                                                             
---------14--16--18--16--14--21--|-------19----18----16-----|
-----14--------------------------|--------------------------|
---------------------------------|--------------------------|
---------------------------------|--------------------------|
---------------------------------|--------------------------|
---------------------------------|--------------------------|


                                                                
-------------13--14--13--11--18--|---------16--14---13---11-9--|
---------16----------------------|-----------------------------|
-----15--------------------------|-----------------------------|
---------------------------------|-----------------------------|
---------------------------------|-----------------------------|
---------------------------------|-----------------------------|


                                                                               
---9----11--11----------|---16----18----18------16-14--|---16-----------------|
------------------------|------------------------------|----------------------|
------------------------|------------------------------|----------------------|
------------------------|------------------------------|----------------------|
------------------------|------------------------------|----------------------|
------------------------|------------------------------|----------------------|

Fuente original: LaCuerda
Colaborador original: jesus morales landin [[email protected]]
Aviso: Este fichero es trabajo propio de su transcriptor y representa su interpretación personal de la canción. El material contenido en esta página es para exclusivo uso privado, por lo que se prohibe su reproducción o retransmisión, así como su uso para fines comerciales.

Califica esta canción


Comentarios en Facebook