Enviado por:
Anonimo

Ricardo Arjona, Duele Verte

*Intro:

-Armónica (G):

 7 7 7 (8) 7 6 7~
 6 7 6 (6) 7 (6) 5~

(Entra guitarra)

(6) 6 (7) 6 5 4~
(6) 5 (5) 5 (6) 6 (7) 7 (7)~


-Gtrra. Acústica:

1. ---0---0---3---3---5---5-----3------12--------10------8--7-|
2. ---1---1---3---3---7---7----5------------------------------|
3. ---0---0---4---4---7---7---5----/12----12-/10----10-9---7--|
4. ---2-2-2---5---5---7---7--5--------------------------------|
5. -3---------5-5-----5-5-------------------------------------|
6. ---------3-------5-----------------------------------------|


*Verso:


  G                    D
   Duele verte con un tipo 
1. ---3----------3-------5-|
2. ---3----------3-------7-|
3. ---4----------4-------7-|
4. ---5----------5-------7-|
5. ---5--------5---------5-|
6. -3------------------5---|
                          C
   al que le faltan las ideas
1. ------------5------------0-|
2. ------------7------------1-|
3. ------------7------------0-|
4. ------------7------------2-|
5. ----------5------------3---|
6. ---------------------------|
                 G     ***5 4 5 (6) 6~
y le sobran argumentos.
1. ------0---------3---3---3-|
2. ------1---------3---3---3-|
3. ------0---------4---4---4-|
4. ----2-2---------5---5---5-|
5. ----------------5-5-----5-|
6. --------------3-------3---|


                       D ***(6) 6 (7)
   Duele verte anestesiada
1. ---------3------------5-|
2. ---------3------------7-|
3. ---------4------------7-|
4. ---------5------------7-|
5. -------5--------------5-|
6. --------------------5---|
                         C 
   porque así se dió la cosa
1. ----------5-------------0-|
2. ----------7-------------1-|
3. ----------7-------------0-|
4. ----------7-------------2-|
5. --------5-------------3---|
6. --------------------------|
                        G ***(6) 6 (7) (6) 6~  5 4 
   porque así quiso tu suerte.
1. ----------0-------------3---3---3-|
2. ----------1-------------3---3---3-|
3. ----------0-------------4---4---4-|
4. --------2-2-------------5---5---5-|
5. ------------------------5-5-----5-|
6. ----------------------3-------3---|


            G                           C
   Mientras yo caliento el banco de suplentes
1. ---------3---------------------------3----|
2. ---------4---------------------------5----|
3. ---------4---------------------------5----|
4. ---------5---------------------------5----|
5. ---------5---------------------------3----|
6. ---------3---------------------------3----|
                     G
   con la camiseta puesta
                          D 
   pa’ incluirme en tu futuro,
 C                        G
   mientras yo te doy de día
                                 D ***(7) 7 (8)~
   lo que él no cumple en  las noches.

  C                     G
   Aquí está tu clandestino
                      D
   pa’ jugar al escondite
         B7           Em   D  
   como amante guerrillero,
  C                    G
   pa’ cubrirte tus carencias
                       D
   de ternura y desenfreno.


  C                         G
   Aunque yo no esté en la foto
                      D
   de la sala de tus padres
               B7          Em
   ni en el bautizo del sobrino,
  C                          G
   y es que tú ahora tienes dos
          D           C
   y a mi me dividen una.


*Coro:


  G(riff)               D
   Cierra puertas y ventanas
                      C
   que el mismisimo cielo
                    G(riff)
   pondrá una sucursal,
                  D                       -Riff:
   en el séptimo piso                     1. ------|
                   C                      2. ------|
   a las once cincuenta,                  3. ------|
                       G(riff)            4. ------|
   mientras duren los besos               5. -2//5-|
                   D                      6. -0----|
   y permita el reloj.


  G(riff)               D
   Cierra puertas y ventanas
                     C
   que en noventa minutos
                    G(riff)
   habra que condenzar
                       D
   las caricias que caben
                        C
   en los huecos que dejan
                      G(riff)
   los encuentros furtivos
             D
   y la soledad.


  C                          G 
   Y es que tú ahora tienes dos
           D          C 
   y a mi me dividen una.


*Interlude:


(riff)

1. -3-3-3-3-3-3-3-3-3-3...-|    -Trompetas: (Armónica)        (Guitarra) 
2. -3-3-3-3-3-3-3-3-3-3...-|                                 1. ----15-14-15----------------|
3. -4-4-4-4-4-4-4-4-4-4...-|                 4 5 (5) 5       2. -15----------15-13-15-13-12-|
4. -5-5-5-5-5-5-5-5-5-5...-|                 4 (3) 4 (3) 3   3. ----------------------------|
5. -5-5-5-5-5-5-5-5-5-5...-|                                 4. ----------------------------|
6. -3-3-3-3-3-3-3-3-3-3...-|                                 5. ----------------------------|
                                                             6. ----------------------------|


*Verso:


  G                      D
   Puede ser que tu conciencia
                         C
   te castigue por las noches
1. -------------------------------------|
2. ---------------------------12-13--15-|
3. ---------------------12-12-----------|
4. -------------------------------------|
5. -------------------------------------|
6. -------------------------------------|
                         G
   y te aliente en la mañanas.
1. ----------------------------15-15----------------|
2. ----------------------15-15-------15-15-13-13-12-|
3. -------------------------------------------------|
4. -------------------------------------------------|
5. -------------------------------------------------|
6. -------------------------------------------------|


  G                          D
   Puede ser que un día de tantos
1. -------------------------------14----14-|
2. ----------------------------15----15----|
3. ----------------------------------------|
4. ----------------------------------------|
5. ----------------------------------------|
6. ----------------------------------------|
                   C
   nos quedemos futuro
1. -----------------14-12----12-|
2. -----------------------15----|
3. -----------------------------|
4. -----------------------------|
5. -----------------------------|
6. -----------------------------|
                       G
   y tú sigas con tu teatro.
1. ------------------------------------------------|
2. -----------------------15-14-12-12--13-12-------|
3. ------------------------------------------14-12-|
4. ------------------------------------------------|
5. ------------------------------------------------|
6. ------------------------------------------------|


             G                          C
   Mientras tanto dame un beso atrincherado,
1. ----------3--------------------------3----|
2. ----------3--------------------------5----|
3. ----------4--------------------------5----|
4. ----------5--------------------------5----|
5. ----------5--------------------------3----|
6. ----------3--------------------------3----|
                           G
   de esos que por ser culpables 
                          D 
   son como agua en el desierto.


  C                   G 
   Tómame como al tequila
                         D ***(7) (6) 6 (5) 5
   de un golpe y sin pensarlo,
  C                       G
   que si alguien sale ganando
                     D
   eres tú querida amiga
           B7            Em
   aunque pienses lo contrario,
  C                          G
   y es que tú ahora tienes dos,
           D          C 
   y a mi me dividen una.


*Coro:

(Entra sólo el bajo)

  G                     D
   Cierra puertas y ventanas
3. -----------------------------------|
4. ------------------------0----------|
5. --------------------2--------------|
6. -3--------------------------2---2--|
                      C
   que el mismisimo cielo
3. --------------------------|
4. --------------------------|
5. -----------------------0--|
6. -------------------2------|
                    G
   pondrá una sucursal,
                  D
   en el séptimo piso
                   C
   a las once cincuenta,
                       G
   mientras duren los besos
                   D          
   y permita el reloj.


  G(riff)               D
   Cierra puertas y ventanas
                     C
   que en noventa minutos
                    G(riff)
   habra que condenzar
                       D
   las caricias que caben
                        C
   en los huecos que dejan
                      G(riff)
   los encuentros furtivos
             D
   y la soledad.


  C                          G 
   Y es que tú ahora tienes dos
           D          C 
   y a mi me dividen una.


  G(riff)               D
   Cierra puertas y ventanas
                      C
   que el mismisimo cielo
                    G(riff)
   pondrá una sucursal,
                  D        
   en el séptimo piso              
                   C                   
   a las once cincuenta,                
                       G(riff)            
   mientras duren los besos               
                   D                    
   y permita el reloj. (Fade Out)



*[email protected]
251291

Fuente original: LaCuerda
Colaborador original: Alonso =============================== www.atame.org =============================== Este fichero es trabajo propio de su transcriptor y representa su interpretación personal de la canción. El usuario se compromete a utilizar este material únicamente para su aprendizaje y estudio personal. Para poder incluir este fichero en otro sitio Web, es necesario mencionar el origen del mismo [www.atame.org]
Aviso: Este fichero es trabajo propio de su transcriptor y representa su interpretación personal de la canción. El material contenido en esta página es para exclusivo uso privado, por lo que se prohibe su reproducción o retransmisión, así como su uso para fines comerciales.

Califica esta canción


Comentarios en Facebook