Enviado por:
Anonimo

Ricardo Arjona, Desnuda

Imprimir
Esta Cancion se toca con un Bajo de 6 Cuerdas y la afinacion es normal(B E A D G B) 
Empezamos!!

Al principio el bajo esta callado y despues inicia con:
  Q=66
 4/4


  W          E S S +S  E. E S S S S S S
|----------|----------------------------|
|----------|----------------------------|
|----------|----------------------------|
|----------|----------------------------|
|----------|----------------------------|
|----------|-----1-(1)-1--1-1-1-1-1-1-1-|


  E. S +E. S E. S +E. S   E. S +E. S E. S +E. S
|-----------------------|-----------------------|
|-----------------------|-----------------------|
|-5--5-(5)-5-0--0-(0)-0-|------------5--5-(5)-5-|
|-----------------------|-----------------------|
|-----------------------|-----------------------|
|-----------------------|-1--1-(1)-1------------|


  E. S +E. S S S S S E. S   +E. S E. S +E. S E. S
|-------------------------|-----------------------|
|-------------------------|-----------------------|
|-0--0-(0)-0-0-0-0-0-5--5-|-(5)-5-0--0-(0)-0------|
|-------------------------|-----------------------|
|-------------------------|-----------------------|
|-------------------------|------------------1--1-|


  +E. S E. S +E. S E. S   +E. S S S S S E. S +E  E
|-----------------------|--------------------------|
|-----------------------|--------------------------|
|-------5--5-(5)-5-0--0-|-(0)-0-0-0-0-0-2--2-(2)-2-|
|-----------------------|--------------------------|
|-----------------------|--------------------------|
|-(1)-1-----------------|--------------------------|


  E. S +E  E E. S +E  E   E. S +E  E Q  Q
|-----------------------|------------------|
|-----------------------|------------4-----|
|-----------------------|------------------|
|-2--2-(2)-2-3--3-(3)-3-|---------------6--|
|-----------------------|-3--3-(3)-3-------|
|-----------------------|------------------|


  E. S +E  E E. S +E  E   E. S +E  S S E. S +E. S
|-----------------------|--------------------------|
|------------5--5-(5)-5-|--------------4--4-(4)-4--|
|-----------------------|-5--5-(5)-5---------------|
|-7--7-(7)-7------------|--------------------------|
|-----------------------|------------5-------------|
|-----------------------|--------------------------|


  E. S +E  E H      +E  E Q  H      W          W
|-----------------|---------------|----------|------|
|----------7-5----|-(5)-----------|----------|------|
|-----------------|---------------|----------|------|
|-7--7-(7)--------|---------------|----------|------|
|-----------------|---------------|----------|------|
|-----------------|---------------|----------|------|


  W          W          W          W
|----------|----------|----------|------|
|----------|----------|----------|------|
|----------|----------|----------|------|
|----------|----------|----------|------|
|----------|----------|----------|------|
|----------|----------|----------|------|


  W          W          W          W
|----------|----------|----------|------|
|----------|----------|----------|------|
|----------|----------|----------|------|
|----------|----------|----------|------|
|----------|----------|----------|------|
|----------|----------|----------|------|


  W          W          E S S +S  E. E S S S S S S   E. S +E. S E. S +E. S
|----------|----------|----------------------------|-----------------------|
|----------|----------|----------------------------|-----------------------|
|----------|----------|----------------------------|-5--5-(5)-5-0--0-(0)-0-|
|----------|----------|----------------------------|-----------------------|
|----------|----------|----------------------------|-----------------------|
|----------|----------|-----1-(1)-1--1-1-1-1-1-1-1-|-----------------------|


  E. S +E. S E. S +E. S   E. S +E. S S S S S E. S
|-----------------------|-------------------------|
|-----------------------|-------------------------|
|------------5--5-(5)-5-|-0--0-(0)-0-0-0-0-0-5--5-|
|-----------------------|-------------------------|
|-----------------------|-------------------------|
|-1--1-(1)-1------------|-------------------------|


  +E. S E. S +E. S E. S   +E. S E. S +E. S E. S
|-----------------------|-----------------------|
|-----------------------|-----------------------|
|-(5)-5-0--0-(0)-0------|-------5--5-(5)-5-0--0-|
|-----------------------|-----------------------|
|-----------------------|-----------------------|
|------------------1--1-|-(1)-1-----------------|


  +E. S S S S S E. S +E  E   E. S +E  E E. S +E  E
|--------------------------|-----------------------|
|--------------------------|-----------------------|
|-(0)-0-0-0-0-0-2--2-(2)-2-|-----------------------|
|--------------------------|-2--2-(2)-2-3--3-(3)-3-|
|--------------------------|-----------------------|
|--------------------------|-----------------------|


  E. S +E  E Q  Q    E. S +E  E E. S +E  E
|------------------|-----------------------|
|------------4-----|------------5--5-(5)-5-|
|------------------|-----------------------|
|---------------6--|-7--7-(7)-7------------|
|-3--3-(3)-3-------|-----------------------|
|------------------|-----------------------|


  E. S +E  S S E. S +E. S   E. S +E  E H
|-------------------------|-----------------*|
|--------------4--4-(4)-4-|----------7-5----*|
|-5--5-(5)-5--------------|-----------------*|
|-------------------------|-7--7-(7)--------*|
|------------5------------|-----------------*|
|-------------------------|-----------------*|

FIN!!!
- BUENO AQUI ABAJO ESTA EL SIGNIFICADO DE LAS LETRAS Y LOS SIGNOS...
- ESPERO QUE LES HAYA AGRADADO Y SOBRETODO QUE LE HAYAN ENTENDIDO...
- POR SI ALGUNA RAZON NO LE ENTIENDEN PUES HECHENME UN MAIL A: [email protected]
- SI QUIEREN ALGUNA PETICION PUES TAMBIEN HECHENME UN MAIL...
- ESTA CANCION Y OTRAS LAS TENGO EN ARCHIVOS POWERTAB, POR SI ALGUIEN LA QUIERE...
  PUES HECHENME UN MAIL PIDIENDOLAS...
- LOS VERE EN LA PROXIMA CANCION!!!...


NOTA!!!: PUEDEN UTILIZAR ESTA TAB PARA PUBLICARLA DONDE USTEDES
QUIERAN, PERO POR FAVOR LES RUEGO QUE ME DEN LOS CREDITOS COMO
TRANSCRIPTOR DE LA MISMA...GRACIAS!!!

NESTOR SADAO ARECHIGA CERVANTES ([email protected])


LEYENDA DE LAS NOTAS:

W = (REDONDA)     NOTA COMPLETA
H = (BLANCA)      MEDIA NOTA
Q = (NEGRA)       CUARTO DE NOTA
E = (CORCHEA)     OCTAVO DE NOTA
S = (SEMICORCHEA) DIECISEISAVA DE NOTA
T = (FUSA)        TREINTAIDOSAVA DE NOTA
X = (SEMIFUSA)    SESENTAICUATROAVA DE NOTA

a  =  ACCIACCATURA
+  =  LIGADURA
.  =  AUMENTA LA DURACION DE LA NOTA
.. =  AUMENTA LA DOBLE DE LA DURACION DE LA NOTA


LEYENDA DEL PENTAGRAMA
 |  - COMPAS
||  - DOBLE COMPAS
||o - ES DONDE VA A COMENZAR CUANDO ALGO SE VA A REPETIR
o|| - ES DONDE VA A TERMINAR CUANDO ALGO SE VA A REPETIR
*|  - FIN DE LA CANCION
 :  - COMPAS LIBRE
 $  - SEGNO (AL VER ESTE SIGNO, TENEMOS QUE RETROCEDER HASTA VER EL SIGNO ANTERIOR $...)
 &  - CODA (SIGNIFICA QUE DEBES PASAR LA SIGUIENTE SIGNO &)

Fuente original: LaCuerda
Colaborador original: sNaKePiTs [Nestor Sadao Arechiga Cervantes]
Aviso: Este fichero es trabajo propio de su transcriptor y representa su interpretación personal de la canción. El material contenido en esta página es para exclusivo uso privado, por lo que se prohibe su reproducción o retransmisión, así como su uso para fines comerciales.

Califica esta canción


Comentarios en Facebook