Enviado por:
Anonimo

Ricardo Arjona, Como Hacer A Un Lado Al Pasado

Imprimir
*Intro:
                                                         X2
1. --------------------------|-----------------|-------------------|-------------------|
2. -2-----2------------------|-5—3/5-3-3-2-0-2-|------2-3-2--------|-----2-3-2---------|
3. ---2-4----4---4-------2---|-----------------|--2-4-------4-2-4--|-2-4-------4-2-2---|
4. ------------6---6---4---4-|-----------------|*-----------------*|-----------------2-|
5. ------------------2-------|-----------------|-------------------|-------------------|
6. --------------------------|-----------------|-------------------|-------------------|


*Verso:


 A                 D
Como si fuese tan fácil
      E          A 
deshacerse del amor,
                    D
como si fuese una prenda
         E           A 
que se quita y se acabo,
F#m                  Bm
así de simple y sencillo
 E                 A    
me pides que te olvide.


 A                 D
Como si fuese tan fácil
      E            A 
arrancarte de mi mente,
                 D 
como si todo lo vivido
         E               A 
hubiese sido tan intrascendente,
F#m                 Bm
así de simple y sencillo
 E                 A 
me pides que te olvide.


*Coro:


 A                      C#m
Como hacer un lado el pasado?
                   D                A
me confundes con piedra, y yo soy humano,
                        C#m
como hacer un lado el pasado?
                 D       E        A
me confundes contigo, y yo si te amo.


A                      C#m
Como hacer un lado el pasado?
                   D                A
me confundes con piedra, y yo soy humano,
                        C#m
como hacer un lado el pasado?
                 D       E        A
me confundes contigo, y yo si te amo.



                                               X2
1. -----------------|-----------------|-------------------|-------------------|
2. ---------2-2-3-3-|-5—3/5-3-3-2-0-2-|------2-3-2--------|-----2-3-2---------|
3. –2-2-4-4---------|-----------------|--2-4-------4-2-4--|-2-4-------4-2-2---|
4. -----------------|-----------------|*-----------------*|-----------------2-|
5. -----------------|-----------------|-------------------|-------------------|
6. -----------------|-----------------|-------------------|-------------------|


*Verso:


 A                 D
Como si fuese tan fácil
      E            A 
suplicarle a mi cerebro,
                  D
que le ordene al corazón
      E                A     
que anule cualquier recuerdo,
F#m                Bm
así de simple y sencillo
 E                 A
me pides que te olvide.


*Coro:


A                      C#m
Como hacer un lado el pasado?
                   D                A
me confundes con piedra, y yo soy humano,
                        C#m
como hacer un lado el pasado?
                 D      E         A
Me confundes contigo, y yo si te amo.


A                      C#m
Como hacer un lado el pasado?
                   D                A
me confundes con piedra, y yo soy humano,
                        C#m
como hacer un lado el pasado?
                 D      E         A
me confundes contigo, y yo si te amo.


*1/2 Up:


(Solo)
A#                      Dm
Como hacer un lado el pasado?
                   D#               A#
me confundes con piedra, y yo soy humano,
                        Dm
como hacer un lado el pasado?
                D#       F       A#
me confundes contigo, y yo si te amo.


*Solo:


-Gtrra. Eléctrica:


1. -----------------------------------------------------------------|
2. --------------------15-17~~--17p14-14br12-12-14~~/11-13-11-14/17-|
3. --------12-14-14-16----------------------------------------------|
4. -/12-14----------------------------------------------------------|
5. -----------------------------------------------------------------|
6. -----------------------------------------------------------------|

1. -----------------------------------------------------|
2. -----/18----/16----20br18----------------------------|
3. -/18-----18-----18--------18--18-16-18p16p14--16-14/-|
4. -----------------------------------------------------|
5. -----------------------------------------------------|
6. -----------------------------------------------------|


*Outro:


 Ohhhuoo, ohh, ohh...
1. -6--8-6-8-10-|---------|
2. -8-10-6------|---------|
3. -8-10-7------|-7-6---6-|
4. -8-10-8------|-----9---|
5. -6--8-8------|---------|
6. -6--8-6------|---------|

Fuente original: LaCuerda
Colaborador original: German Ahumada [[email protected]]
Aviso: Este fichero es trabajo propio de su transcriptor y representa su interpretación personal de la canción. El material contenido en esta página es para exclusivo uso privado, por lo que se prohibe su reproducción o retransmisión, así como su uso para fines comerciales.

Califica esta canción


Comentarios en Facebook