Enviado por:
Anonimo

Ricardo Arjona, A Cara O Cruz

Imprimir
Pues si no me equivoco, esta cancion la canto Arjona para el tema
de una novela y esta en el CD de Galeria Caribe en Portuguez,
bueno aqui esta:


Intro- Dos guitarras   	X2

*Guitarra 1:
1. -----0---0h1------------------
2. -----1---1---1p0-------0------
3. -----2-2---------2---2---2----
4. ---2---------------2-------2--
5. -0----------------------------
6. ------------------------------

*Guitarra 2: Acompañando a la primera pero con ligados mas rapidos.
1. ----------------------------------5--
2. -----12h14-9-7-12h14-9-7-12h14-9--0--
3. -5-7------------------------------0--
4. -------------------------------------
5. -------------------------------------
6. -------------------------------------



El azar es la metafora perfecta,
1. -5-9-7-7--
2. ----------
3. ----------
4. ----------
5. ----------
6. ----------
del que le busca inspiracion a la tristeza,
1. ----------------
2. -------1--------
3. -----2---2---2--
4. ---2-------2----
5. -0--------------
6. ----------------
el destino es la coartada sigilosa,
1. --------------
2. --------------
3. –5h7-7-5-3-2--
4. --------------
5. --------------
6. --------------
de quien lo pretende todo y nunca acierta.
1. ------------
2. ---1-0---5--
3. -2-----2----
4. ------------
5. ------------
6. ------------


1. -------2h3-2-0--
2. -0-3-5----------
3. ----------------
4. ----------------
5. ----------------
6. ----------------


Mientras el futuro asoma su perfil,
1. -----------
2. -----------
3. -5-3-5--5--
4. -----------
5. -----------
6. -----------
el presente se devate con la muerte,
1. -----0---------0--
2. –3/5---3-5---5----
3. -----------5------
4. ------------------
5. ------------------
6. ------------------
como quien se juega el todo por el todo,
1. --------------
2. -1-0h1p0------
3. ---------2-4--
4. --------------
5. --------------
6. --------------
como una moneda puesta al viento.


CORO:

 F                    G
Jugando siempre, apostando siempre,
C         Am
a cara o cruz,
F               G                C                 Am
ante la encruzijada revisas las cosas que pudieron pasar,
          F                       G
y que se suspendieron por verlas girando en el viento,
C         Am
a cara o cruz,
 F               G                     C                  Am
te jugaste los sueños, los besos, el llanto y la tortura mortal,
               F                    G
de ignorar el futuro y escoger al amor de tu vida,
C         Am
a cara o cruz,
 F                     G                   Am      
mientras que en la ventana, se escurre el tiempo.

Intermedio: X2

*Guitarra 1:
1. -----0---0h1------------------
2. -----1---1---1p0-------0------
3. -----2-2---------2---2---2----
4. ---2---------------2-------2--
5. -0----------------------------
6. ------------------------------

*Guitarra 2: 
1. ----------------------------------5--
2. -----12h14-9-7-12h14-9-7-12h14-9--0--
3. -5-7------------------------------0--
4. -------------------------------------
5. -------------------------------------
6. -------------------------------------

Arpejeo: Am G F

Mientras la moneda da vueltas al viento,
un beso te perfuma la existencia,
mujer de corazon partido en dos,
dime a cual mitad yo pertenezco,
lo que para ti es tremenda encrucijada,
para mi es amar la incertidumbre,
lo que para ti es borron y cuenta nueva,
para mi es principio o final.


F                    G
Jugando siempre, apostando siempre,
C         Am
a cara o cruz,
F               G                C                 Am
ante la encruzijada revisas las cosas que pudieron pasar,
          F                       G
y que se suspendieron por verlas girando en el viento,
C         Am
a cara o cruz,
 F               G                     C                  Am
te jugaste los sueños, los besos, el llanto y la tortura mortal,
               F                    G
de ignorar el futuro y escoger al amor de tu vida,
C         Am
a cara o cruz,
 F                     G                   Am      
mientras que en la ventana, se escurre el tiempo,

*Guitarra 1:
1. -----0---0h1------------------
2. -----1---1---1p0-------0------
3. -----2-2---------2---2---2----
4. ---2---------------2-------2--
5. -0----------------------------
6. ------------------------------

*Guitarra 2: 
1. ----------------------------------5--
2. -----12h14-9-7-12h14-9-7-12h14-9--0--
3. -5-7------------------------------0--
4. -------------------------------------
5. -------------------------------------
6. -------------------------------------

se escurre el tiempo,

*Guitarra 1:
1. -----0---0h1------------------
2. -----1---1---1p0-------0------
3. -----2-2---------2---2---2----
4. ---2---------------2-------2--
5. -0----------------------------
6. ------------------------------

*Guitarra 2: 
1. ----------------------------------7-7h8-7-5--
2. -----12h14-9-7-12h14-9-7-12h14-9-------------
3. -5-7-----------------------------------------
4. ---------------------------------------------
5. ---------------------------------------------
6. ---------------------------------------------

a cara o cruz,

*Guitarra 1:
1. --------------
2. -------0------
3. -----2---2----
4. ---2-------2--
5. -0------------
6. --------------

*Guitarra 2:
1. -----------------------------------5h7--
2. -9-9-12h14-12-9-14-12-9-12h14-12-9------
3. ----------------------------------------
4. ----------------------------------------
5. ----------------------------------------
6. ----------------------------------------


Bueno, eso fue todo. Dudas o comentarios o si encuentran un error
me escriben a mi mail. Suerte!!!

Fuente original: LaCuerda
Colaborador original: german ahumada [[email protected]]
Aviso: Este fichero es trabajo propio de su transcriptor y representa su interpretación personal de la canción. El material contenido en esta página es para exclusivo uso privado, por lo que se prohibe su reproducción o retransmisión, así como su uso para fines comerciales.

Califica esta canción


Comentarios en Facebook