Enviado por:
Anonimo

Ricardo Arjona, Amor De Tele

Pues esta es una de sus mejores rolas de su CD de Historias,
esta muy padre por los arreglos que tiene, los cuales me tome
la molestia de sacarlos lo mas fiel posible, espero les guste:


Intro:

Guitarra 1:

1. ---------0---|-------0-3-----|-------0-3-----|-------0------|
2. -----1-------|-----1---------|-----1-----1---|-----1---1----|
3. ---2---2---2-|---2-----------|---2---------2-|---2-------2--|
4. -------------|---------------|---------------|--------------|
5. -0-----------|-0-------------|-0-------------|-0------------|
6. -------------|---------------|---------------|--------------|

Guitarra 2:

1. -------------|---------------|---------------|---------------|
2. –----3/5-5-5-|-1-1-3/5-5-5-3-|---------------|-----1-1p0-----|
3. -------------|---------------|---------------|------------2--|
4. -------------|---------------|---------------|---------------|
5. -------------|---------------|---------------|---------------|
6. -------------|---------------|---------------|---------------|


Guitarra 2:

1. --------------------|
2. ---7/8—-5/6--5---4--|
3. --5----5-------4-4--|
4. ------------5-------|
5. --------------------|
6. --------------------|


Am                    F
Amo la costura de tu falda,
1. ------------
2. -5-5-3---3--
3. -------5----
4. ------------
5. ------------
6. ------------
 G                         C
amo la estructura de tu espalda,
1. ---------------|
2. -5-3---2h3-2p0-|
3. -----5---------|
4. ---------------|
5. ---------------|
6. ---------------|
 Am                      F
amo lo que ves y lo que tocas,
1. -----3/5-3--|
2. ---3--------|
3. -5----------|
4. ------------|
5. ------------|
6. ------------|
  G                       C   Am 
amo lo que no es y lo provocas.
1. --------|
2. -5-3----|
3. -----5--|
4. --------|
5. --------|
6. --------|

 F           G           C
Amo tu frialdad ante la vida,
1. -3-3-3-1-0--|
2. ------------|
3. -5-5-5-2-1--|
4. ------------|
5. ------------|
6. ------------|
 Am        G               Am
amo tu verdad aunque es mentira.
1. ---7-5--|
2. -5------|
3. --------|
4. --------|
5. --------|
6. --------|

 Am                      F
Amo mucho mas que tu belleza,
1. -7-8-10-10/12-12-12-10p8-10--|
2. -----------------------------|
3. -----------------------------|
4. -----------------------------|
5. -----------------------------|
6. -----------------------------|
 G                        C
te amo si te vas o si regresas,
1. –10h12-12-12p10-8----8-7-5--|
2. ------------------10--------|
3. ----------------------------|
4. ----------------------------|
5. ----------------------------|
6. ----------------------------|
Am                       F
amo la cicatriz en tu rodilla,
1. -----1-0--|
2. -0-3------|
3. ----------|
4. ----------|
5. ----------|
6. ----------|
G                          C
y ese lunar gris en tu barbilla.
1. -7-5-53---3--|
2. ---------5----|
3. --------------|
4. --------------|
5. --------------|
6. --------------|

 F                    G           C    Am
Si no fuera porque estas metida adentro,
1. –10h12-12-12-13-12-10-12--|
2. --------------------------|
3. --------------------------|
4. --------------------------|
5. --------------------------|
6. --------------------------|
 F           G              C   Am
de un televisor de seis a siete,
1. ---7-9-9h11-97-9--|
2. -9-----------------|
3. -------------------|
4. -------------------|
5. -------------------|
6. -------------------|
 F                G         C    Am
te diria lo que siento por dentro,
1. –7p5-5---5p3--|
2. -------5------|
3. --------------|
4. --------------|
5. --------------|
6. --------------|
 F               G             Am
cada vez que te besa un mequetrefe.
1. ----------|
2. -----1----|
3. -------2--|
4. ---2------|
5. -0--------|
6. ----------|

 F                G          Am 
Me enamore de la diva de la tele,
1. -0-0--|
2. -1-1--|
3. -0-2--|
4. -2-2--|
5. -3-0--|
6. ------|
 F                     G          Am
como es de idiota el amor y como duele.
1. -5-7-8-8/10--|
2. -------------|
3. -------------|
4. -------------|
5. -------------|
6. -------------|

Guitarra 1:

1. ---------0---|------------|------------------3--|---------0--|
2. -----1-------|-----1---1--|--------------1------|-----1------|
3. ---2---2---2-|---2---2----|------------2---2----|---2---2----|
4. -------------|------------|---------------------|------------|
5. -0-----------|-0----------|----------0----------|-0----------|
6. -------------|------------|---------------------|------------|

Guitarra 2:

1. -------------|------------|-7-8-8/10-8-7-7/8-5--|------------|
2. ---1-3-3/5---|---1-3-3/5--|---------------------|------------|
3. -------------|------------|---------------------|------------|
4. -------------|------------|---------------------|------------|
5. -------------|------------|---------------------|------------|
6. -------------|------------|---------------------|------------|

Guitarra 2:

1. ------------|
2. -8-5-4-3/4--|
3. -5-5---0----|
4. -----5------|
5. ------------|
6. ------------|


 Am                          F
Ayer te vi deprisa y fue en vivo,
1. ---------0-3----|
2. -0-1-1/3-----3--|
3. ----------------|
4. ----------------|
5. ----------------|
6. ----------------|
G                                    C
y descubri que tu sonrisa era de archivo,
1. -8-8p7-5-3-5--|
2. --------------|
3. --------------|
4. --------------|
5. --------------|
6. --------------|
Am                        F
me fui tras de ti para tocarte,
1. ------------------|
2. -1-3-3/5-3-1-1/3--|
3. ------------------|
4. ------------------|
5. ------------------|
6. ------------------|
G                          C    Am  
y lo que consegui fue enfadarte.
1. -------3h5p3--|
2. -3-5-3--------|
3. --------------|
4. --------------|
5. --------------|
6. --------------|

 F                   G               C  Am    
Descubri que era ficticio el lunar gris,
1. –10h12-12-12-12-10-8-10--|
2. -------------------------|
3. -------------------------|
4. -------------------------|
5. -------------------------|
6. -------------------------|
  F                    G             C  Am
mientras tumbabas la puerta en mi nariz,
1. ------------------|
2. ------------------|
3. ------------------|
4. ---5---5----------|
5. -7---7---7-5-3-5--|
6. ------------------|
 F                G                C   Am
tendre que conformarme de seis a siete,
1. -8-10-10/12-15-13-10-12--|
2. -------------------------|
3. -------------------------|
4. -------------------------|
5. -------------------------|
6. -------------------------|
 F                 G             Am
con soñar que soy yo ese mequetrefe.
1. -------0--|
2. -------1--|
3. -------2--|
4. -----2-2--|
5. -0-3---0--|
6. ----------|

 F                G           Am 
Me enamore del papel de una novela,
1. -7-8-7-5--|
2. ----------|
3. ----------|
4. ----------|
5. ----------|
6. ----------|
 F             G               Am
se que tu no existes y me doy pena.
1. -------7-7h8-7-5--10--|
2. -1-3-1-------------8--|
3. ----------------------|
4. ----------------------|
5. ----------------------|
6. ----------------------|



Pues ahi estuvo. Dudas o comentarios a mi mail.
Suerte!!!!

Fuente original: LaCuerda
Colaborador original: german ahumada [[email protected]]
Aviso: Este fichero es trabajo propio de su transcriptor y representa su interpretación personal de la canción. El material contenido en esta página es para exclusivo uso privado, por lo que se prohibe su reproducción o retransmisión, así como su uso para fines comerciales.

Califica esta canción


Comentarios en Facebook