Acordes y tablaturas para guitarra

Acordes y Tablaturas
Usuario: Password:

Buscar:
Acordes y Tablaturas >> Letra L >> Acordes de La renga >> En el baldio
Bajo de En el baldio, La renga

En el baldio

La renga






*el intro es acompañado con guitarra después de 2 intros de guitarra:
1|-----------------------------------------------|
2|-----------------------------------------------|     (*)estira el ultimo 2
3|-----------------------------------------------|
4|--2---2---2---3---------2---2---2(*)-----------|

Verso
1|------------------------------------------------------------------| *(cuando dice:...con esos
2|------------------------------------------------------------------|   ojos tristes que me hablaban 
3|----------------------------------------2--------------3-------2--|   en lugar del último 2,
4|--------------------3---2---1-------------------------------------|   se reemplaza por un 4 en la misma
las garras de un terrible ser    desplumaban un angel en el cielo       cuerda

Estribillo:
1|----------------------------------------------------|
2|----------------------------------2-----------------|   *(y así todo el estribillo)
3|-----------------------------2---------3------------|
4|----2----------3--4--------------------------4------|
  no me mires así      Dios me ha hecho para caer

Solo de guitarra vá con los siguientes punteos en bajo:
1|-------------------------------0---------------0-------------------------------------------------------|
2|-----------------------2---3-------2---3---3-------2---3---3---2---------------------------------------|
3|-----------0---2---3-----------------------------------------------0---2---3---0---2---3---3-----------|
4|---0---2---------------------------------------------------------------------------------------3---0---|

Cuando termina el solo, acompaña a la guitarra, que toca Sol y Re
1|---------------------------|
2|---------------------------|
3|-------------------3-------|
4|---1---2---2---2-------4---|

Repite tab de verso
Repite tab del estribillo

Final:
1|---------------------------------------------------|   *Repite 4 veces, la última es lenta
2|---------------------------------------------------|
3|-----------------------3---3---3---3---------------|
4|---1---3---3---3---3-------------------3---2---1---|

Repite tab 1 (verso)...bien lento, al compás de la guitarra y termina 

Traigan mas tabs de bajo, ya que de la renga hay pocos
Saludos a todos los rengos

Fuente original: LaCuerda
Colaborador original: Alejandro Nápoli [[email protected]]

Que te parecio? Calificalo con estrellas!!

Rating: 5.7/10 (49 votos)

Este fichero es trabajo propio de su transcriptor y representa su interpretación personal de la canción. El material contenido en esta página es para exclusivo uso privado, por lo que se prohibe su reproducción o retransmisión, así como su uso para fines comerciales.


Deja tus comentarios:

Letras de La renga
Letras de canciones | Musica Independiente