Enviado por: Anonimo
Agrandar Letra
Reducir Letra
Imprimir


Otras Versiones de El viento que todo lo empuja:




La renga, El viento que todo lo empuja

Intro
G-------------------//---------------------------> 
D-------------------//--------------------------->
A----5----5----5---//----------2-22-------------->
E-------------------//---0-00--------3-33-------->


Parte 1/  hoy me detuve en tu mirada....
G-------------//-----------------> 
D-------4--7--//----------------->
A----5--------//-----/5--------->
E-------------//----------------->


Parte 2/   mundo que todo lo muele.....
G--------------------//------------//---------> 
D--------------------//------4--7--//--------->
A--------2-22--------//---5--------//----/5-->
E--0-00-------3-33---//------------//--------->


Parte 3/  Solo eso solo eso....
G------------//----------------------------//-> 
D------4--7--//----------------------------//->
A---5--------//----------------------------//->
E------------//---0---5555--77-88-99-1010--//->


G >-------------------//-----------------------------------------> 
D >-------------------//----------------------------------------->
A >--------------333--//--3--5--3--5--3--00-3--5--3--5--3--00---->
E >-------5555--------//----------------------------------------->


El 1er solo es sobre la parte 1

El segundo y ultimo se hace con las notas -A-C-D- ósea como la parte 
3 pero sin hacer los pasajes.

Como el bajo se escucha por encima de todo no me pareció necesario 
explicarlo más todavía ya que es muy fácil. Otra cosa en parte 3 la 
nota 5 ósea A esta puesta solo cuatro veces pero Uds. Pueden repetirla 
las veces que quieran, al igual la 3 (C), con tal que caiga en el tiempo.
Cualquier duda o sugerencia no tengan miedo en comunicarse con migo a 
[email protected]  ¡¡aguante la renga!! Y vamos Ñuls.

Fuente original: LaCuerda
Colaborador original: Guido C. Cosentino [[email protected]]
Aviso: Este fichero es trabajo propio de su transcriptor y representa su interpretación personal de la canción. El material contenido en esta página es para exclusivo uso privado, por lo que se prohibe su reproducción o retransmisión, así como su uso para fines comerciales.

Califica esta canción


Comentarios en Facebook