Acordes y tablaturas para guitarra

Acordes y Tablaturas
Usuario: Password:

Buscar:
Acordes y Tablaturas >> Letra R >> Acordes de Rata blanca >> Preludio obsesivo
Tablatura de Preludio obsesivo, Rata blanca

Preludio obsesivo

Rata blanca






Tema: Preludio obsesivo
Autor: R. Conso   Version: Walter Giardino
Afinacion: standart 4/40
tiempo: 4/4
clave: La menor
Transcripcion por: Guillermo Belfiori

Mi nombre es Guillermo belfiori y les paso este tema que me pidieron muchisimo por mail. 
Perdon porque creo que puede llegar a tener 
algunos errores porque los transcribi muy rapido pero igual si los hay no creo y espero que sean demasiados
por cualquier duda, mi mail es [email protected]
Con respesto al tema, no es tan dificil como parece, aunque dentro de los de Girdino es uno de los mas 
desafiantes, no es que lo criteque a Walter, pero algunas partes sobre todo las mas rapidas no le salen muy 
limpias asi que sino les sale limpia a ustedes tampoco importa, requiere un poco de pilas y mucha memoria nada 
mas...... un abrazo y suerte!


leyenda:

<>= Armonicos                 / = Arrastres
~ = Vibratos                  p = Lidago descendente o Pull off 
__3__ = Trecillos             h = Lidado ascendente o Hammer on
b= estiradas o bends          r = Soltar la estirada
x = Silencio de cuerda        tr = Mover la pua rapido y continuo (tremolo)
    o sordina                 t = tapping





A: pua abajo B:pua arriba

           A    A  A  A  A    B  B  B B  B etc.........
E|-----------------------12-17p12------------------------12-17p12--------------------12-17p12--------|
B|--------------------13---------13--------------------13--------13----------------13----------------|
G|-----------------14---------------14---------------14------------14------------14------------------|
D|--------------14--------------------14-----------14----------------14--------14--------------------|
A|-/12 12 12h15-------------------------15p12-12h15--------------------15-12h15----------------------|
E|---------------------------------------------------------------------------------------------------|

E|-19b21r19p17-17~------------------------------------------------------------------------------|
B|------------------/13-------------------------------------------------------------------------|
G|------------------/14-------------------------------------------------------------------------|
D|------------------/14-------------------------------------------------------------------------|
A|------------------/12-------------------------------------------------------------------------|
E|----------------------------------------------------------------------------------------------|

E|-------------------------------------------------------------------------------------16--------------|
B|-------------------------------12-12-15-12-------------------------------------12-15----12-----------|
G|------------14--13--14--13--13------------14-13-14--------------14-13-14-13-13--------------14-13-14-|
D|----------14--------------------------------------------------14-------------------------------------|
A|--12-12-15--------------------------------------------12-12-15---------------------------------------|
E|-----------------------------------------------------------------------------------------------------|

E|-----------17-21-17---------------------------------------15-19-15-------------------------------------|
B|--------17----------17------------17----17-18----------15----------15--------------15----15-17---------|
G|.-18-18----------------19-18--/19----19----------16-16---------------17-16--/17-17----17---------------|
D|.------------------------------------------------------------------------------------------------------|
A|-------------------------------------------------------------------------------------------------------|
E|-------------------------------------------------------------------------------------------------------|

E|---------13-17-13------------------------------|
B|-------13--------13------------13----13--------|
G|--14-14-------------15-14--/15----15----15----.| X2
D|----------------------------------------------.|
A|-----------------------------------------------|
E|-----------------------------------------------|

1era vez termina asi
                                              
E|-17-------------17-------------17----------21b24-------------------------------------------|
B|----18-17-18-21----18-17-18-21----18-17-18--------21b22r21---------------------------------|
G|-------------------------------------------------------------------------------------------|
D|-------------------------------------------------------------------------------------------|
A|-------------------------------------------------------------------------------------------|
E|-------------------------------------------------------------------------------------------|

2da vez termina asi

E|-16-18-16----------------------------------------------------------------------------------|
B|-----------18-17---------------------------------------------------------------------------|
G|------------------19-17-16---------------------4-------------------------------------------|
D|----------------------------19-18-17--6----6-7---6-7~~-------------------------------------|
A|-------------------------------------------------------------------------------------------|
E|-----------------------------------------0-------------------------------------------------|

    B AA  B AA......... etc
E|-8p5-5-8p5-5--12p8--8-12p8--8--13p10--10-13p10--10--10p7-7-10p7--7-------------------------|
B|----5-----5-------10------10--------10--------10--------9-------9--------------------------|
G|.-----------------------------------------------------------------------------------------.| X 2
D|.-----------------------------------------------------------------------------------------.|
A|-------------------------------------------------------------------------------------------|
E|-------------------------------------------------------------------------------------------|

E|-12p9--9-12p9--9--15p12--12-15p12--12--13p10--10-13p10--10--17p13--13-17p13--13----|
B|-----11------11--------14--------14---------10--------10---------15--------15------|
G|-----------------------------------------------------------------------------------|
D|-----------------------------------------------------------------------------------|
A|-----------------------------------------------------------------------------------|
E|-----------------------------------------------------------------------------------|

E|-10p7-7-10p7-7--13p10--10-13p10--10--12p8-8-12p8-8-13p8-12p8-8-12p8-8--------------|
B|-----8------8--------12--------12--------8------8-----------8------8---------------|
G|-----------------------------------------------------------------------------------|
D|-----------------------------------------------------------------------------------|
A|-----------------------------------------------------------------------------------|
E|-----------------------------------------------------------------------------------|

E|-8p5-5-8p5-5--12p8--8-12p8--8--13p10--10-13p10--10--16p13--13-16p13--13---------------|
B|----5-----5-------10------10--------12--------12---------15--------15-----------------|
G|--------------------------------------------------------------------------------------|
D|--------------------------------------------------------------------------------------|
A|--------------------------------------------------------------------------------------|
E|--------------------------------------------------------------------------------------|

E|--19p16---16p13---13p10---10p7-----8p5-5-8p5-5-8p5-5-8p5-5--------------------------------|
B|-------18------15------12------9------5-----5-----5-----5---------------------------------|
G|.----------------------------------------------------------------------------------------.| X 3 
D|.----------------------------------------------------------------------------------------.|
A|------------------------------------------------------------------------------------------|
E|------------------------------------------------------------------------------------------|

E|--8p5-5--8p5-5--12p8--8--12p8--8--10p7-7-10p7-7--12p8-8--12p8-8--12p9--9-12p9--9--|
B|-----5------5-------10-------10-------8------8-------8-------8-------10------10---|
B|----------------------------------------------------------------------------------|
D|----------------------------------------------------------------------------------|
a|----------------------------------------------------------------------------------|
E|----------------------------------------------------------------------------------|

E|--13p10--10--13p10--10--10p7-7--10p7-7--12p8-8-12p8-8--8p5-5-8p5-5--10p6-6-10p6-6--|
B|-------10---------10--------8-------8-------8------8------6-----6-------6------6---|
G|-----------------------------------------------------------------------------------|
D|-----------------------------------------------------------------------------------|
A|-----------------------------------------------------------------------------------|
E|-----------------------------------------------------------------------------------|

E|--7p4-4-7p4-4--8p5-5-8p5-5--8p5-5-8p5-5--8p5-5-8p5-5---|
B|-----6-----6------5-----5------5-----5------5-----5----|
G|-------------------------------------------------------|
D|-------------------------------------------------------|
A|-------------------------------------------------------|
E|-------------------------------------------------------|

E|--8p5-5-8p5-5--11p8--8-11p8--8--14p11--11-14p11--11--17p14--14-17p14--14--17p12--12-17p12--12----|
B|-----7-----7-------10------10--------13--------13---------16--------16--------12---------12------|
G|-------------------------------------------------------------------------------------------------|
D|-------------------------------------------------------------------------------------------------|
A|-------------------------------------------------------------------------------------------------|
E|-------------------------------------------------------------------------------------------------|

E|--17p12--12-17p12--12--16p12--12-16p12--12-16p12--12-16p12--12--15p12--12-15p12--12-15p12--12-15p12--12--|
B|-------12--------12---------12--------12--------12--------12---------14--------14--------14--------14----|
G|---------------------------------------------------------------------------------------------------------|
D|---------------------------------------------------------------------------------------------------------|
A|---------------------------------------------------------------------------------------------------------|
E|---------------------------------------------------------------------------------------------------------|

E|--18p15--15-18p15--15-18p15--15-18p15--15--17p13--13-18^13--13-17p13--13-17p13--13-17p13--13--|
B|-------17--------17--------17--------17---------15--------15--------15--------15--------15----|
G|----------------------------------------------------------------------------------------------|
D|----------------------------------------------------------------------------------------------|
A|----------------------------------------------------------------------------------------------|
E|----------------------------------------------------------------------------------------------|

E|--18p13--12-17p13--13-17p13--13--12p9--9-12p9--9-12p9--9-12p9--9--|
B|-------15--------15--------15--------11------11------11------11---|
G|------------------------------------------------------------------|
D|------------------------------------------------------------------|
A|------------------------------------------------------------------|
E|------------------------------------------------------------------|

E|--15p12--12-15p12--12-15p12--12-15p12--12--13p10--10-13p10--10-13p10--10-13p10--10---|
B|-------14--------14--------14--------14---------10--------10--------10--------10-----|
G|-------------------------------------------------------------------------------------|
D|-------------------------------------------------------------------------------------|
A|-------------------------------------------------------------------------------------|
E|-------------------------------------------------------------------------------------|

E|--13p10--10-13p10--10-13p10--10-13p10--10--10p7-7-10p7-7-10p7-9-10p7-9--12p8--8-12p8---8--|
B|-------12--------12--------12--------12--------9------9------9------9-------10-------10---|
G|------------------------------------------------------------------------------------------|
D|------------------------------------------------------------------------------------------|
A|------------------------------------------------------------------------------------------|
E|------------------------------------------------------------------------------------------|

E|--12p8--8-12p8--8--17p12--12-17p12--12-17p12--12-17p12--12---20p17--17--20p17----17--|
B|------10------10--------13--------13--------13--------13----------17----------17-----|
G|-------------------------------------------------------------------------------------|
D|-------------------------------------------------------------------------------------|
A|-------------------------------------------------------------------------------------|
E|-------------------------------------------------------------------------------------|

E|--17p14--14--17p14--14--14p11--11--14p11--11--11p8--8--11p8--8---|
B|-------16---------16---------13---------13--------10-------10----|
G|-----------------------------------------------------------------|
D|-----------------------------------------------------------------|
A|-----------------------------------------------------------------|
E|-----------------------------------------------------------------|

E|--0-0-0-13p0-0-0-12p0-0-0-10p0-0-0-8p0-0-0-12p0-0-0-10p0-0-0-8p0-0-0-7p0-0-0--|
B|------------------------------------------------------------------------------
G|.-----------------------------------------------------------------------------|
D|.-----------------------------------------------------------------------------|
A|------------------------------------------------------------------------------|
E|------------------------------------------------------------------------------|

E|--10p0-0-0-8p0-0-0-7p0-0-0-5p0-0-0-8p0-0-0-0-7p0-0-0-5p0-0-0-4p0-0-0-----------|
B|-------------------------------------------------------------------------------|
G|------------------------------------------------------------------------------.| X 2
D|------------------------------------------------------------------------------.|
A|-------------------------------------------------------------------------------|
E|-------------------------------------------------------------------------------|


E|--4-5-7-4-5-7-8-5-7-8-10-7-8-10-12-8-10-12-13-12-10------------------------------------|
B|----------------------------------------------------13-10-9-10-12-10-9-10--------------|
G|---------------------------------------------------------------------------6-----------|
D|-----------------------------------------------------------------------------------14--|
A|-----------------------------------------------------------------------------------12--|
E|-------------------------------------------------------------------------------/12-----|

E|-16p12--12-16p12--12-16p12--12-13p12--12-16p12--12-16p12--12-13p12--12-16p12--12-------|
B|------15--------15--------15--------15--------15--------15--------15--------15---------|
G|.--------------------------------------------------------------------------------------|
D|.--------------------------------------------------------------------------------------|
A|---------------------------------------------------------------------------------------|
E|---------------------------------------------------------------------------------------|

E|--20p17----17p12----12p9------------------------------------/17~~-----------------|
B|-------17-------13------10---17p14-----17p14-17p13---14---------------------------|
G|-----------------------------------14--------------14----------------------------.| X 2
D|---------------------------------------------------------------------------------.| 
A|----------------------------------------------------------------------------------|
E|----------------------------------------------------------------------------------|

E|--15-17-13-17-12-17----17------------------------13-15-12-15-10-15----15--------------------------|
B|--------------------15-----14-15-15-17-15-14-15--------------------13----12-13-13-15-13-12-13~----|
G|.-------------------------------------------------------------------------------------------------|
D|.-------------------------------------------------------------------------------------------------|
A|--------------------------------------------------------------------------------------------------|
E|--------------------------------------------------------------------------------------------------|

E|--------------------------------------------------------------------------10-12p8---------10-12p8----|
B|-----15-18p15--------15-18p15---------12-13p12---------12-15p12---------10--------10----10-------10--|
G|---16--------16----16--------16-----13--------13-----13--------13------9---------------9-------------|
D|-15--------------15---------------12------------12-12------------12----------------------------------|
A|-----------------------------------------------------------------------------------------------------|
E|-----------------------------------------------------------------------------------------------------|

E|---5-8p5-----5-8p5----13-12-10-------------------------------------------------|
B|--5-----5---5-----5------------13-12-9-10-10-12-10-9-10b12-10~~----------------|
G|-5---------5------------------------------------------------------------------.|
D|------------------------------------------------------------------------------.| X 2
A|-------------------------------------------------------------------------------|
E|-------------------------------------------------------------------------------|

E|-----------------------------------------------------------------------------------|
B|--20b22-20b22r20--18h20p18/17--18p17---------------17-18-20-18-17---18-17----------|
G|--------------------------------------19~~------/19---------------19-----19--------|
D|-----------------------------------------------------------------------------------|
A|-----------------------------------------------------------------------------------|
E|-----------------------------------------------------------------------------------|

E|-------------------------------------------------------------------------------|
B|----17-------------------------------------------------------------------------|
G|-17----19-17-16h17p16h17--14h16p14p13h14p10h14p13b14-14b16r14p13h14~~----------|
D|-------------------------------------------------------------------------------|
A|-------------------------------------------------------------------------------|
E|-------------------------------------------------------------------------------|

E|-------------------------------------17-19-20-19b20r19p17-19b20---20p19p17p16--17-19-----|
B|------12-13-15b17r15p13--15b17----/17----------------------------------------------------|
G|--/14------------------------------------------------------------------------------------|
D|-----------------------------------------------------------------------------------------|
A|-----------------------------------------------------------------------------------------|
E|-----------------------------------------------------------------------------------------|

La escala que es lo mas dificil del tema tiene dos partes la ascendente primero y la desendente
luego, lo que tiene de complicado es la primera parte que es bastante dificil de agarrar el truco
porque no sigue un esquema clasico en cambio la desendente sigue secuencia de sextillos entonces es
mas facil, sugiero ir aprendiendos de memoria por parte preferiblemente agarra grupos de 12 notas y
repetirlos y despues hacerla toda entera

E|--20p19p17p16--19-20--20p19p17/15---19p17p15/13--17p15p13/12--12-13-15-17-15-13-12--------|
B|------------------------------------------------------------------------------------------|
G|------------------------------------------------------------------------------------------|
D|------------------------------------------------------------------------------------------|
A|------------------------------------------------------------------------------------------|
E|------------------------------------------------------------------------------------------|

E|-----12-12-------12----------------------13-12-------------------------------------------------|
B|--13-------15-13----15-13-12-15-13-12----------15-13-12-------12-------------------------------|
G|--------------------------------------14----------------13-14----13h14p13----------13-14-13----|
D|--------------------------------------------------------------------------15-14-15-------------|
A|-----------------------------------------------------------------------------------------------|
E|-----------------------------------------------------------------------------------------------|

E|------------------------------------------------------------------------------------------------|
B|------------------------------------------------------------------------------------------------|
G|-10-9-10-9----10-9---10-9------9--------------------------------10-9-7--------------------------|
D|-----------12------12-----12-10--12-10-9-12-10-9-7-10-9-7-6-9-7--------10-9-7-6-9-7-6-----------|
A|--------------------------------------------------------------------------------------8-7-5-----|
E|------------------------------------------------------------------------------------------------|

E|--------------------------------------------------------------------------------------------|
B|--------------------------------------------------------------------------------------------|
G|-------------------------------------------------------------------------5----5-7---5-7-9---|
D|-------------------------------------------------5-----5-7---5-7-9-5-7-9---7-9----9---------|
A|-------------------------5-----5-7---5-7-8-5-7-8---7-8-----8--------------------------------|
E|--8-7-5-4-5-5~~--4-5-7-8---7-8-----8--------------------------------------------------------|

E|--------------------------------------------------------------10-------10-12----10-12-13---|
B|------------------8------9-10----9-10-12----10-12-13-10-12-13----12-13-------13------------|
G|--5-7-9-10-7-9-10---9-10------10---------12------------------------------------------------|
D|-------------------------------------------------------------------------------------------|
A|-------------------------------------------------------------------------------------------|
E|-------------------------------------------------------------------------------------------|

E|-10-12-13-16-16-13-16-16b17~~--16b17~~--16b1716~~-----------------------------|
B|------------------------------------------------------------------------------|
G|------------------------------------------------------------------------------|
D|------------------------------------------------------------------------------|
A|------------------------------------------------------------------------------|
E|------------------------------------------------------------------------------|

en esta ultima parte se requiere mucha velocidad en la mano derecha, seria ideal, va al menos
yo la aprendi asi, hacerla en limpio para ver si podes llegar a esa velocidad en limpio
y sino la mas facil, pone el delay de la pedalera a 80 y sale sola!!! jajajjajajajjaja

E|-20-17-19-20-19-17-----|
B|-----------------------|
G|----------------------.|
D|----------------------.| X 8
A|-----------------------|
E|-----------------------|

E|-----------------------|
B|-18-15-17-18-17-15-----|
G|----------------------.|
D|----------------------.| X 8
A|-----------------------|
E|-----------------------|

E|-19-15-17-19-17-15-----|
B|-----------------------|
G|----------------------.|
D|----------------------.| X 8
A|-----------------------|
E|-----------------------|

E|-----------------------|
B|-17-13-15-17-15-13-----|
G|----------------------.| X 8
D|----------------------.| 
A|-----------------------|
E|-----------------------|

E|-17-13-15-17-15-13-----|
B|-----------------------|
G|----------------------.| X 8
D|----------------------.|
A|-----------------------|
E|-----------------------|

E|-----------------------|
B|-15-12-13-15-13-12-----|
G|----------------------.| X 4
D|----------------------.|
A|-----------------------|
E|-----------------------|

E|-17-16---------16------------|
B|-------18-17-18--------------|
G|----------------------------.|
D|----------------------------.| X 2
A|-----------------------------|
E|-----------------------------|

E|--17-16-----------------------|
B|--------18-17-----------------|
G|--------------19-16-16~~------|
D|------------------------------|
A|------------------------------|
E|------------------------------|

E|-17p12---------12-------------|
B|-------13---13----------------|
G|----------14-----------------.| X 5 creo??
D|-----------------------------.|
A|------------------------------|
E|------------------------------|

E|--19b20-19-17-16--16h17p17----16-17----------------------------------------------|
B|---------------------------19------17-18-----17----------------------------------|
G|------------------------------------------19-----17-19-16-17----16---------------|
D|-------------------------------------------------------------19----18-19~~~~~~---|
A|---------------------------------------------------------------------------------|
E|---------------------------------------------------------------------------------|

Bueno esto es todo un saludo y suerte con el tema!

Fuente original: LaCuerda
Colaborador original: Guillermo Belfiori [[email protected]]

Que te parecio? Calificalo con estrellas!!

Rating: 8.7/10 (217 votos)

Este fichero es trabajo propio de su transcriptor y representa su interpretación personal de la canción. El material contenido en esta página es para exclusivo uso privado, por lo que se prohibe su reproducción o retransmisión, así como su uso para fines comerciales.


Deja tus comentarios:

Letras de Rata blanca
Letras de canciones | Musica Independiente