Acordes y tablaturas para guitarra

Acordes y Tablaturas
Usuario: Password:

Buscar:
Acordes y Tablaturas >> Letra R >> Acordes de Rata blanca >> Otoño medieval
Tablatura de Otoño medieval, Rata blanca

Otoño medieval

Rata blanca






esta es una corrección de la tablatura de pablo gomez ([email protected]), 
pero creo que vale la pena echarle un vistazo a esta nueva tablatura ya que a mi 
parecer es más precisa que la anterior


guitarra clásica.

e:--5--7--8-----------7--5---------------------------------------------------|
B:-----------5-----5--------6-----5-----6-----5--5-------------------6-------|
G:--------------5--------------7-----7-----7-------------7--5--7--7-----7----|
D:--------------------------0--------------------------7-------0-------------|
A:--------0-----------------------------------0-----0------------------------|
E:---------------------------------------------------------------------------|


e:---------------------------------------------------------------------------|
B:---------------------------------------------------------------------------|
G:--5--4--5-----5-----4--------------------4--5-----5-5----5-----5--5--------|
D:-----------------------7--6-----6-----7------------------------------------|
A:--------------------------------------------0--0-------0----0--------0-----|
E:--------1--1-----1--------0--0-----0---------------------------------------|


e:--5--7--8-----------7--5---------------------------------------------------|
B:-----------5-----5--------6-----5-----6-----5--5-------------------6-------|
G:--------------5--------------7-----7-----7-------------7--5--7--7-----7----|
D:--------------------------0--------------------------7-------0-------------|
A:--------0-----------------------------------0-----0------------------------|
E:---------------------------------------------------------------------------|


e:---------------------------------------------------------------------------|
B:---------------------------------------------------------------------------|
G:--5--4--5-----5-----4-----------------5--4---------------------------------|
D:-----------------------7--6-----6-----------7-----7-7----7-----7--7--------|
A:--------------------------------------------0--0-------0----0--------0-----|
E:--------1--1-----1--------0--0-----0---------------------------------------|


e:---------------------------------------------------------------------------|
B:------------5---6----5--5--------------------6-----------------5-----------|
G:--4--5--7-7---7---7--------------7--5--7--7-----7--5--4--5--5-----5--------|
D:--------0---------------------7--------0-----------------------------------|
A:---------------------0-----0-----------------------------0-----------------|
E:---------------------------------------------------------------------------|


e:--------------------------------------------5------------------------------|
B:------------5---6----6--8—-8/10--9-------------0--9------------------------|
G:--4--5--7-7---7---7--5--6—-8/10--9--9----9--------9--9-----9---------------|
D:--------0------------------------------------------------------------------|
A:---------------------------------------------------------------------------|
E:---------------------------------0-----0----------0-----0------------------|

                                                      







e:--5--7--8-----------7--5---------------------------------------------------|
B:-----------5-----5--------6-----5-----6-----5--5-------------------6-------|
G:--------------5--------------7-----7-----7-------------7--5--7--7-----7----|
D:--------------------------0--------------------------7-------0-------------|
A:--------0-----------------------------------0-----0------------------------|
E:---------------------------------------------------------------------------|


e:---------------------------------------------------------------------------|
B:---------------------------------------------------------------------------|
G:--5--4--5-----5-----4-----------------5--4---------------------------------|
D:-----------------------7--6-----6-----------7-----7-7----7-----7--7--------|
A:--------------------------------------------0--0-------0----0--------0-----|
E:--------1--1-----1--------0--0-----0---------------------------------------|


e:--8---10---12----8--10--12------------7----------7---8---10---12---8--10-12|
B:-10---12---13---10--12--13---9---10---9--9---10--9--10---12---13--10--12-13|
G:-----------------------------9----9------9----9----------------------------|
D:---------------------------------------------------------------------------|
A:--0---------0------------0---------------------------0---------0----------0|
E:-----------------------------0--------0----------0-------------------------|


e:----------7---------7-----8---7---5-------------------------4---5—-7--|
B:---9--10--9--9--10--9----10---8---6---5---6---6/8--5--6--5--5---5—-5--|
G:---9---9-----9---9--------------------4---4--------5--5--5------------|   
D:--------------------------0-------------------------------------------|
A:---------------------------------------------------0-----0------------|   
E:---0------0---------0-----------------0---------------------0---------|


e:----8---10---12---8--10--12----7---8--10---7---8--10---8---10---12---8--10-|
B:---10---12---13--10--12--13----9--10--12---9--10--12--10---12---13--10--12-|
G:---------------------------------------------------------------------------|
D:---------------------------------------------------------------------------|
A:----0---------0-----------0----------------------------0---------0---------|
E:-------------------------------0-------0-----------0-----------------------|


e:-12----7---8--10---7---8--10----8---7--5--7--5--4-----5-----7-----8--|
B:-13----9--10--12---9--10--12---10---8--6--8--6--5--5-----5--5--5----5|
G:---------------------------------------------------------------------|     
D:--------------------------------0------------------------------------|
A:--0---------------------------------------------------------0--------|    
E:-------0-------0-----------0--------------------0--------------------|


e:---10---12--13--13-------8--10--12--12------10--12--13--13-------8--10--12-|
B:---12---13--15------15--10--12--13-----13---12--13--15------15--10--12--13-|
G:---------------------------------------------------------------------------|
D:-------------0---------------------------------------0---------------------|
A:---------------------------------0---------------------------------------0-|
E:---------------------------------------------------------------------------|


e:-12-------10--12--13--13-------13----15---17--------7—-5---4-----5------7--|
B:-----13---12--13--15------15---15----17---18--------8--6---5--5-----5---5--|
G:---------------------------------------------------------------------------|     
D:-------------------0-------------------------------------------------------|
A:---------------------------------------------------------------------------|     
E:-----------------------------------------------------------0------------0--|








Guitarra 2:

e:--5--7--8-----------7--5---------------------------------------------------|
B:-----------5-----5--------6-----5-----6-----5--5-------------------6-------|
G:--------------5--------------7-----7-----7-------------7--5--7--7-----7----|
D:--------------------------0--------------------------7-------0-------------|
A:--------0-----------------------------------0-----0------------------------|
E:---------------------------------------------------------------------------|

                                                               Am
e:--------------------------------------------------------0----0-------------|
B:-----------------------------------------------------1-------1-------------|
G:--5--4--5-----5-----4-----------------5--4--------2----------2-------------|
D:-----------------------7--6-----6--------------2-------------2-------------|
A:--------------------------------------------0----------------0-------------|
E:--------1--1-----1--------0--0-----0---------------------------------------|


  Guitarra 1 :

e:--5--7--8///////15///12//10//8//////15///12//10//8//7//5-------------------|
B:---------------------------------------------------------------------------|
G:---------------------------------------------------------------------------|
D:---------------------------------------------------------------------------|
A:---------------------------------------------------------------------------|
E:---------------------------------------------------------------------------|

Fuente original: LaCuerda
Colaborador original: Franco Villafañe [[email protected]]

Que te parecio? Calificalo con estrellas!!

Rating: 8.4/10 (224 votos)

Este fichero es trabajo propio de su transcriptor y representa su interpretación personal de la canción. El material contenido en esta página es para exclusivo uso privado, por lo que se prohibe su reproducción o retransmisión, así como su uso para fines comerciales.


Deja tus comentarios:

Letras de Rata blanca
Letras de canciones | Musica Independiente