Acordes y tablaturas para guitarra

Acordes y Tablaturas
Usuario: Password:

Buscar:
Acordes y Tablaturas >> Letra R >> Acordes de Rata blanca >> Mujer amante
Tablatura de Mujer amante, Rata blanca

Mujer amante

Rata blanca






SOLO 1

-----------------8--7-|-8--------8/--10--8-------|------------------8--7--|
----------------------|-------------------10/-12-|-----------8------------|
----------------------|--------------------------|------------------------|
----------------------|--------------------------|------------------------|
----------------------|--------------------------|------------------------|
----------------------|--------------------------|------------------------|

-8-------8/-10--10/-12-|------------------8--7---|-8--------8/-10--8-------| 
-----------------------|-------------------------|------------------10/-12-|
-----------------------|-------------------------|-------------------------|
-----------------------|-------------------------|-------------------------|
-----------------------|-------------------------|-------------------------|
-----------------------|-------------------------|-------------------------|

----------------10/-12-|-----10---10------12/-14-|----12----10------10-----|
---10---8--8--8--------|-------------------------|-------------------------|
-----------------------|-------------------------|-------------------------|
-----------------------|-------------------------|-------------------------|
-----------------------|-------------------------|-------------------------|
-----------------------|-------------------------|-------------------------|

------------------------|------------------------|-------------------------|
-------5--8-------------|------------------------|---------5--8------------|
---7-----------7---5--7-|-----4---7--------------|---7W---------7----5--7/-|
------------------------|--7W-------7H-----5-----|-------------------------|
------------------------|------------------------|-------------------------|
------------------------|------------------------|-------------------------|

----------------------------|-------------------------|-----------------------|
-------8--10W---8-----8--10-|--10W--10--8-10----8--10-|-8--10-----8--10-8-10-12-
----9-------------9---------|----------------9--------|------------------------
----------------------------|-------------------------|------------------------
----------------------------|-------------------------|------------------------
----------------------------|-------------------------|------------------------

----------------------------|
------10------10------------|
----------------------------|
----------------------------|
----------------------------|
----------------------------|


Solo 2
e--------11----------------------------------------------
B-11--13-----11--13-11-----------------------------------
G----------------------11^-------------------------------
D----------------------------10--8--10-----------10-10-10
A---------------------------------------9^-9^-9^---------
E--------------------------------------------------------

e-------------------------------------------11--13-14^---
B---------------------------------11-13--11------------13
G----------------------------11^-------------------------
D-10m-13m----8--10-12h13^-12-----------------------------
A---------8^---------------------------------------------
E--------------------------------------------------------

e--------------------------------------------------------
B--------3^-3----------6^----------3^--------------------
G-5--3-5-------5--3-5------5--3-5------5--3-5--5---------
D--------------------------------------------------------
A--------------------------------------------------------
E--------------------------------------------------------

e----------------10-11^-------------14^------------10-11^
B-13--13p11--13----------13--11-13-------13--11-13-------
G--------------------------------------------------------
D--------------------------------------------------------
A--------------------------------------------------------
E--------------------------------------------------------

e----------------10-11^---14^----------------------------
B-13--13p11--13------------------------3^----------------
G--------------------------------------------------------
D--------------------------------------------------------
A--------------------------------------------------------
E--------------------------------------------------------



G Em Bm                                        A 
        Siento el calor de toda tu piel en mi cuerpo otravez 
            
                Bm             G        D          A 
        estrella fugaz enciende mi ser, misteriosa mujer 
  
                 G                     Bm 
        con tu amor sensual cuanto me das 
                     
                           A    Em   D 
        haz que mi sueño sea una verdad 
               
                G                   Bm 
        dame tu alma hoy has el ritual 
        
                         A     Em    F#7 
        llevame a un mundo donde pueda soñar 
  
CORO : 

       Bm    D                   A            Bm 
        uhhh debo saber si en verdad en algun lado estas 

                    D       A          Bm 
        voy a buscar una señal una cancion 

       Bm    D                   A            Bm 
        uhhh debo saber si en verdad en algun lado estas 

                     D          A         Bm A G Em 
        solo el amor que tu me das me ayudara 




    Bm                                 A 
        Al amanecer tu imagen se va misteriosa mujer 

          Bm            G       D      A 
        dejaste en mi lujuria total hermosa y sensual 

            G                      Bm 
        corazon sin dios dame un lugar 

               A    Em     D 
        en ese mundo tibio casi real 

             G               Bm 
        te vere buscar una señal 

             A    Em   F#7 
        en aquel camino por el que vas 

CORO 

SOLO 

       G                                   Bm 
        Tu prescencia marcó en mi vida el amor lo se 

      A              Em                   D 
        es dificil pensar en vivir ya sin vos 

            G                      Bm 
        corazon sin dios dame un lugar 

               A     Em   F#7 
        en ese mundo tibio casi real 

CORO 

SOLO 2

Fuente original: LaCuerda
Colaborador original: christian [[email protected]]

Que te parecio? Calificalo con estrellas!!

Rating: 7.8/10 (465 votos)

Este fichero es trabajo propio de su transcriptor y representa su interpretación personal de la canción. El material contenido en esta página es para exclusivo uso privado, por lo que se prohibe su reproducción o retransmisión, así como su uso para fines comerciales.


Deja tus comentarios:

Letras de Rata blanca
Letras de canciones | Musica Independiente