Acordes y tablaturas para guitarra

Acordes y Tablaturas
Usuario: Password:

Buscar:
Acordes y Tablaturas >> Letra R >> Acordes de Rata blanca >> El sueño de la gitana
Tablatura de El sueño de la gitana, Rata blanca

El sueño de la gitana

Rata blanca






INTRODUCCIÓN:
  G
e:-6--------8--------6--------5--------6--------|
B:----8--------8--------8--------8--------8-----|
G:-------7--------7--------7--------7--------7--|
D:----------------------------------------------|
A:----------------------------------------------|
E:----------------------------------------------|
              REPETIR 1 VEZ



   D#
e:-----------------------------------------------|
B:--8--------6--------8--------6--------8--------|
G:-----8--------8--------8--------8--------8-----|
D:--------8--------8--------8--------8--------8--|
A:-----------------------------------------------|
E:-----------------------------------------------|
               REPETIR 1 VEZ



     C
e:------------------------------------------|
B:---4--------3--------4--------3--------4--|
G:------5--------5--------5--------5--------|
D:---------5--------5--------5--------5-----|
A:------------------------------------------|
E:------------------------------------------|
               REPETIR 1 VEZ



    D
e:------------------------------------------------|
B:---7--------5--------7--------5--------7--------|
G:------7--------7--------7--------7--------7-----|
D:---------7--------7--------7--------7--------7--|
A:------------------------------------------------|
E:------------------------------------------------|




    D
e:---5--------6--------5--------6--------5--------|
B:------7--------7--------7--------7--------7-----|
G:---------7--------7--------7--------7--------7--|
D:------------------------------------------------|
A:------------------------------------------------|
E:------------------------------------------------|



    G  		        C          G
     Danza gitana,  tu fuerza será
          
    D#          A#           F
     fuente de mi inspiración
     
    D
     En tu mirada,  en tu boca de fuego
     
    G     D#      D
     está el amor.
     
    G                        C         G
     Saca la herrumbre,  de todo mi ser
     
    D#        A#         F
     devuélveme la pasión
     
    D     
     dama tu sangre,   podra hacer latir 
     
    G     D#      D
     a mi corazón.
     

CORO:
    F             A#          
     tus labios me pueden sanar
     
    D             G
     heridas del tiempo y quizás
     
    D#            G     D#      C      D
     un dia me enseñes,  toda la verdad
     
    F            A#       
     Gitana tu puedes leer
     
    D            G
     mis manos y así conocer
     
    D#          G            D#        C         D
     que mi amor y tu amor,  juntos quieren estar.
     
INTRO.

    G             C                    G
     Donde estaran esas brujas que ayer
     
    D#          A#            F
     mi fuerza hicieron morir
    
    D                                G    D#    D
     Ven a ayudarme,  mi dulce gitana a revivir.
    
    G                   C                G
     no te das cuenta,  lo solo que estoy
    
    D#          A#           F
     ven pronto, ven hacia mí
     
    D                                       G       D#    D
     solo el perfume de tu piel  me haría,   soñar, sentir
     
CORO:

    F        A#           
     resulta dificil creer
     
    D         G
     cuanto necesito de vos
     
    D#            G     D#      C    D
     quisiera tenerte,  tu boca besar
     
    F         A#              
     Quizás algun dia vendrás
    
    D             G       
     Vendrás a calmar mi dolor
     
    D#         G          D#         C           D
     y tu amor y mi amor,  juntos siempre estarán.
     
SOLO:
     

    G               C               G
     Danza gitana,  hermosa y sensual
     
    D#         A#         F
     dame tu dulce verdad,
     
    D
     dame memoria,  que ya no recuerdo
     
    G      D#     D
     lo que es amar.
     
    G                   C          G
     te esperaré  y algún dia veré
     
    D#          A#          F
     tus largas faldas volar
     
    D
     y sus colores darán nueva vida
     
    G       D#      D
     a mi ser verás.
     
CORO:
    F          A#          
     Gitana por siempre Serás
     
    D           G
     la fuerza que me salvará
     
    D#            G
     espero que llegues
     
    D#     C        D
     y juntos luchar.
    
    F           A#
     No debes negar tu misión
     
    D                 G
     lo escrito no puede cambiar
     
    D#          G
     mi canción te avisó

    D#          C         D
     yo solo puedo esperar.


INTRO.


                                FIN

Fuente original: LaCuerda
Colaborador original: pablo gomez [[email protected]]

Que te parecio? Calificalo con estrellas!!

Rating: 7.1/10 (114 votos)

Este fichero es trabajo propio de su transcriptor y representa su interpretación personal de la canción. El material contenido en esta página es para exclusivo uso privado, por lo que se prohibe su reproducción o retransmisión, así como su uso para fines comerciales.


Deja tus comentarios:

Letras de Rata blanca
Letras de canciones | Musica Independiente