Acordes y tablaturas para guitarra

Acordes y Tablaturas
Usuario: Password:

Buscar:
Acordes y Tablaturas >> Letra R >> Acordes de Rata blanca >> Aun estás en mis sueños
Tablatura de Aun estás en mis sueños, Rata blanca

Aun estás en mis sueños

Rata blanca






afinación normal (e-B-G-D-A-E)

se pude arpegiar en acústico, que es lo recomendable, pero pueden arpegiar también
con overdrive, los riffs del solo están abajo de cada tablatura del solo.

con overdrive

|-------------------------------------------------|
|-------------------------------------------------|
|----4-4-------6-6--6-6-6s4----4-4----------------|
|-6--4-4--4-4--6-6--6-6-6s4-6--4-4--4-4--2-2--2-2-|
|-6--2-2--4-4--4-4--4-4-4s2-6--2-2--4-4--2-2--2-2-|
|-4-------2-2---------------4-------2-2--0-0--0-0-|

|------------------------------------------|
|------------------------------------------|
|----4-4-------6-6--6-6-6s4----4-4---------|
|-6--4-4--4-4--6-6--6-6-6s4-6--4-4--4-4--2-|
|-6--2-2--4-4--4-4--4-4-4s2-6--2-2--4-4--2-|
|-4-------2-2---------------4-------2-2--0-|

 E                      B
Hoy desperté con un montón de marcas en mi piel
C#m        G#m                F#
Alguien por la noche me las dejo
 E                          B
Quiero saber si esta fue la magia de tus labios
C#m         G#m    C#m          G#m
Hay perfume de mujer brotando aquí
      E           D#m       C#m B         F#     E        D#
El conjuro de un cuento de amor ya me atrapo lo puedo sentir

Coda:
G#m        E      B                   F#
Y por las noches puedo asentir su calor
G#m        E        B                D#
Su dulce magia me hace perder la razón
G#m        E     B                   F#
Y de mis sueños creo que un día escapo
G#m        E     B                D#
Para esconderse dentro de mi corazón

|-------------------------------------------------|
|-------------------------------------------------|
|----4-4-------6-6--6-6-6s4----4-4----------------|
|-6--4-4--4-4--6-6--6-6-6s4-6--4-4--4-4--2-2--2-2-|
|-6--2-2--4-4--4-4--4-4-4s2-6--2-2--4-4--2-2--2-2-|
|-4-------2-2---------------4-------2-2--0-0--0-0-|

|------------------------------------------|
|------------------------------------------|
|----4-4-------6-6--6-6-6s4----4-4---------|
|-6--4-4--4-4--6-6--6-6-6s4-6--4-4--4-4--2-|
|-6--2-2--4-4--4-4--4-4-4s2-6--2-2--4-4--2-|
|-4-------2-2---------------4-------2-2--0-|

 E                  B
Como escapar nada real me importa conocer
C#m        G#m          F#                           F#                                      E
Solo esperare hasta dormir -------------------->  B|-12-11h12p11-------12b(14)r-11--------------|
E                           B                     G|-------------11---------------11-11s13-11s9-|
Estoy aquí frente al gran espejo para convencer   D|----------------11--------------------------|
C#m            G#m     C#m      G#m
A los duendes que dirán como llegar
E                D#m   C#m
A aprender el hechizo real
     B        F#         E        D#
que junte los sueños con la realidad

Coda:
G#m        E      B                   F#
Y por las noches puedo asentir su calor
G#m        E        B                D#
Su dulce magia me hace perder la razón
G#m        E     B                   F#
Y de mis sueños creo que un día escapo
G#m        E     B                D#
Para esconderse dentro de mi corazón
Ooohh.....


no soy muy bueno para hacer solos como los de giardino al mas puro estilo de los 70 y 80
a si es que improviso un poco y traten de hacerlo ustedes, y les pido disculpas por el
solo ordinario que les mando, pero algo es algo.

solo
                                                                     aquí improvisa un poco
e|-----------------------------------------------------------------------------------------|
B|-7-9-7---------------------------------------------------------7p4---7p4h7p4---7p4h7p4---|
G|-------9-6b(8)r-6---6-8-8p6---6--1s4vv--4-3h4p3p1--4-3h4p3p1s6-----6---------6---------6-|
D|------------------9---------9------------------------------------------------------------|
A|-----------------------------------------------------------------------------------------|
E|-----------------------------------------------------------------------------------------|
 |
 |solamente escribiré las notas base, Uds. deben ponerle color al asunto
 |con palm mute y todo lo demás
 |-----------------------------------------------------------------------------------------|
 |-----------------------------------------------------------------------------------------|
 |-------------4------------6--------------------------------------------------------------|
 |-2-----------4------------6-------------2------------------------4----------2------------|
 |-2-----------2------------4-------------2------------------------4----------2------------|
 |-0--------------------------------------0------------------------2----------4------------|

                                                          aquí no cacho nada
 |-12-14-16-16-14-12----12----12-14-14-12----14-14-12--------------|
 |-------------------16----16-------------16----------16-12s14-???-|
 |-------------------------------------------------------------???-|
 |-----------------------------------------------------------------|
 |-----------------------------------------------------------------|
 |-----------------------------------------------------------------|
 |
 |
 |-----------------------------------------------------------------------------------------|
 |-----------------------------------------------------------------------------------------|
 |-------------4------------6--------------------------------------------------------------|
 |-2-----------4------------6-------------2------------------------4----------2------------|
 |-2-----------2------------4-------------2------------------------4----------2------------|
 |-0--------------------------------------0------------------------2----------4------------|


 |------------------------------------------------------------------|
 |----------------------------12-14-14s16-14-12-11-9-7-5-s8-5-4-2---|
 |-13-11h13p11----13h13p11------------------------------------------|
 |-------------14----------14-------------------------------------6-|
 |------------------------------------------------------------------|
 |------------------------------------------------------------------|
 |
 |
 |-----------------------------------------------------------------|
 |-----------------------------------------------------------------|
 |-----------------------------------------------------------------|
 |-2-------------------------6-----------------4------------8------|  fin
 |-2-------------------------6-----------------4------------8------|
 |-0-------------------------4-----------------2------------6------|


Coda:
G#m        E      B                   F#
Y por las noches puedo asentir su calor
G#m        E        B                D#
Su dulce magia me hace perder la razón
G#m        E     B                   F#
Y de mis sueños creo que un día escapo
G#m        E     B                D#
Para esconderse dentro de mi corazóoooon


con las mis mas notas del coro:

|---------------------------|             |--------------------------------|
|---------------------------|             |--------------------------------|
|--------------8-6---6-8-6--|             |--------------11-9----9-11------|
|-9-8-6--9-8-6-----9--------|             |-9-8-6--9-8-6------13------9s11-|
|---------------------------|             |--------------------------------|
|---------------------------|             |--------------------------------|
                         aún estas en mis sueñoooooooos                Oooohh nooo

|---------------------------|--------------------------------|
|---------------------------|--------------------------------|
|--------------8-6---6-8-6--|--------------11-9----9-11------| mucha veces hasta 
|-9-8-6--9-8-6-----9--------|-9-8-6--9-8-6------13------9s11-| el aburrimiento o hasta
|---------------------------|--------------------------------| que tus manos sangren o
|---------------------------|--------------------------------| mueras.
                   dentro de mi corazóooon           aahhh ohhhh


leyenda

  b : bend
  r : relajar bend
  p : pull off
  v : barra de vibrato
  s : deslizar hacia la derecha o izquierda
  h : hammer on
 (n): esta es el traste de la nota que debería sonar

Fuente original: LaCuerda
Colaborador original: jorge luis contreras jara [[email protected]]

Que te parecio? Calificalo con estrellas!!

Rating: 7.6/10 (103 votos)

Este fichero es trabajo propio de su transcriptor y representa su interpretación personal de la canción. El material contenido en esta página es para exclusivo uso privado, por lo que se prohibe su reproducción o retransmisión, así como su uso para fines comerciales.


Deja tus comentarios:

Letras de Rata blanca
Letras de canciones | Musica Independiente