Enviado por: Anonimo
Agrandar Letra
Reducir Letra
Imprimir

Acordes:
½ tono
| +0 |
½ tono
||
Volver





Raly barrionuevo, Chacarera del exilio

 
e*-------12--11--9---14--9--8~9-9----------------
B*-------------------------------------------------
G*-----13----11--9---14--9--8~9--------------------
D*-------------------------------------------------
A*-------------------------------------------------
E*-------------------------------------------------

~[indica arrastre con ligadura]

e*-----12--11--9~~14--9--8~9-9------12-14--16--8~9-9---
B*-----------------------------------------------------
G*---13----11--9~~14--9--8~9------13---14--16--8~9-----
D*-----------------------------------------------------
A*-----------------------------------------------------
E*-----------------------------------------------------

         I
C#m            G#7      C#m  
Vuelve a cantar el coyuyo 
               G#7        [C#m]
despues de un año sin huellas 
 F#m
vuelve a renacer el grito 
  E    [F#]     G#7 C#m
marron de la chacarera.


Es el hombre americano 
corazon en la batalla 
rebelion y abrazo fuerte 
de parche y de madrugada.

Soy latino de la danza, 
de Guevara y dictadores, 
de quebracho cordillera 
de exiliados y cantores.


Estribillo
**********
Chacarera del exilio 
transhumante es mi destino 
y esta copla que me lleva 
descalzo por los caminos.

          II

Huele a pueblo el caminante
que a desgranado el camino, 
sabe a lucha la palabra 
que no conoce de olvido.

Tengo una mujer de fuego
navegando en mis nostalgias
tengo una mujer de greda 
me despierta en las mañanas.

Cinco siglos de silencio 
genocidio de una raza 
y la pachamama lumbre 
que enciende nuestra esperanza.

Los acordes entre [] son de paso
Alguna duda o comentario escriban a [email protected] 

Fuente original: LaCuerda
Colaborador original: Felix Rojo [[email protected]]
Aviso: Este fichero es trabajo propio de su transcriptor y representa su interpretación personal de la canción. El material contenido en esta página es para exclusivo uso privado, por lo que se prohibe su reproducción o retransmisión, así como su uso para fines comerciales.

Califica esta canción


Comentarios en Facebook