Enviado por: Anonimo
Agrandar Letra
Reducir Letra
Imprimir






Los piojos, Muy despacito

Version de Huracanes en luna plateada, es distinta a la version original
intro:                                                          

E||--------------------2-----|--------2-----------------|
B||--------3-----------------|-----------------2-----2--|
G||-----2-----------2--------|-----2-----2--------------|
D||--0--------0--4--------4--|--0-----------4-----3-----|
A||--------------------------|--------------------------|
E||--------------------------|--------------------------|


                                                                              
--------2-----------------|-----------5-----------|--------2-----------2-----|
--------------------3-----|--------6-----6--------|--------------------------|
-----2-----------2--------|-----4-----------------|-----2-----------2--------|
--0--------0--4--------0--|--3--------------------|--0--------0--4--------0--|
--------------------------|-----------------------|--------------------------|
--------------------------|-----------------------|--------------------------|


                                                                               
--------2---------2----|--------------1--------|--------3--3--------------|--||
-----------------------|-----------1-----------|--------3--3--------------|--||
-----2-----------------|--------2--------------|-----0--------0--0--------|--||
--0--------0--3h4------|--0--3-----------------|--3-----------------0--0--|--||
-----------------------|-----------------------|--------------------------|--||
-----------------------|-----------------------|--------------------------|--||

Fuente original: LaCuerda
Colaborador original: C F [[email protected]]
Aviso: Este fichero es trabajo propio de su transcriptor y representa su interpretación personal de la canción. El material contenido en esta página es para exclusivo uso privado, por lo que se prohibe su reproducción o retransmisión, así como su uso para fines comerciales.

Califica esta canción


Comentarios en Facebook