Enviado por:
Anonimo

Los Piojos, Genius

Imprimir
INTRO

G|---------------------------|	Repite esto varias veces y lo sigue haciendo en
D|---------------------------|	toda la primera parte de la estrofa.
A|-------------7-----------7-|
E|-0-0-4-0-5-7---0-4-0-5-7---|


Viene haciendo esto una y otra vez, excepto en la última vuelta antes del
Oh!, cuantas veces arranqué por tu amor que hace lo siguiente:

G|---------------------------|
D|---------------------------|
A|-----------7---------------|
E|-0-4-0-5-7---0-4-0-5-7-5-4-|  

Y de aca sale al Oh! cuantas... que es asi:


G|-----------------------------------------| x 2
D|-----------------------------------------|
A|---2-3-5-3-2-----4-5-7-5-4-------------7-|
E|-3-----------3-5-----------0-0-4-0-5-7---|


La segunda estrofa presenta una variación:

G|-----------------| x 4
D|-----------------|
A|---------------7-|
E|-0-|-0-4-0-5-7---|

G|-------|
D|-------|
A|-3 x16-|
E|-------| Y vuelve a la base de E


ESTRIBILLO

G|-------------------------------------------------|
D|-------------------------------------------------|
A|-5 x8--3 x8--2 x8--------5 x8--3 x8--2 x8--------|
E|-------------------5 x8--------------------5 x16-|


Bueno, este es el bajo de Genius, cualquier duda 
escribanme que no tardo en responder...

Fuente original: LaCuerda
Colaborador original: FeDeBaJiS [[email protected]]
Aviso: Este fichero es trabajo propio de su transcriptor y representa su interpretación personal de la canción. El material contenido en esta página es para exclusivo uso privado, por lo que se prohibe su reproducción o retransmisión, así como su uso para fines comerciales.

Califica esta canción


Comentarios en Facebook