Enviado por:
Anonimo

Los Piojos, Fantasma

Esta es una correccion respecto a la colaboracion anterior de
Lucas L. Lotierzo([email protected]). Mas que nada en el
ESTRIBILLO, el SOLO DE ARMONICA y ESTROFAS finales...
-------------------------------------------------------------

Intro: Riff1 x4

Sobre Riff1:
Voy cruzando las paredes de tu casa
yo se bien lo que pensas, lo que te pasa
vos creiste ver tu sombra en el espejo
vengo para amarte desde un mundo viejo.

Riff1 x2

Sobre Riff1:
Tan despacio estas sacandote la ropa
la tristeza esta cambiandose de copa
Sobre Riff2:
ya no llames ni a ese cura, ni a esa bruja arpia
Sobre Riff1:
en esta casa siempre, seras mia.

ESTRIBILLO:
F5                 A5                 C5                G5
 Yo se lo que paso, por eso estoy aca, solo un fantasma soy.

Riff1 x2

Sobre Riff1:
Me emborracho con la esencia de tus vinos
y comparto tus cigarros asesinos.
Sobre Riff2:
Bailo cuando estas bailando entre la gente.
Sobre Riff1:
El mundo es tu mundo y solo esta en tu mente.

ESTRIBILLO

(Sin tocar)
Che, che, decime por que con un fantasma solo lo haces.
Che, che, decime por que con un fantasma solo lo haces...

SOLO DE ARMONICA: Riff2 x2
                  Riff1 x2
                  F5 A5 C5 G5

(Sin tocar)
Che, che, decime por que con un fantasma solo lo haces.
Che, che, decime por que estamos juntos hoy otra vez...

Sobre Riff3:
Yo soy el espiritu que ronda en tu casa
yo se lo que pensas y lo que te pasa.

Sobre Riff4:
Che, che, decime por que con un fantasma solo lo haces.
Che, che, decime por que con un fantasma solo lo haces.
Che, che, decime por que con un fantasma solo lo haces.
A5   A5
Che, che, decime por que con un fantasma solo lo haces.


Riff1:
   A5
e|-------------------------|
B|-------------------------|
G|-------------------------|
D|-2-2-2---2-2-2-2-2---2---|
A|-0-0-3h4-3-0-0-0-3h4-3h4-|
E|-------------------------|

Riff2:
   D5
e|-------------------------|
B|-------------------------|
G|-2-2-2---2-2-2-2-2---2---|
D|-0-0-3h4-3-0-0-0-3h4-3h4-|
A|-------------------------|
E|-------------------------|


Riff3:
   A5        F5 G5  A5
e|----------------|-----------------|
B|----------------|-----------------|
G|----------------|-----------------|
D|-2-2-2---2--3-5-|-2-2-2---2-------|
A|-0-0-3h4-3--3-5-|-0-0-3h4-3-6-5-3-|
E|------------1-3-|-----------------|

Riff4:
   A5        F5 G5
e|----------------|
B|----------------|
G|----------------|
D|-2-2-2---2--3-5-|
A|-0-0-3h4-3--3-5-|
E|------------1-3-|

-----------------------------
[email protected]
TropiPunkCuarteSkaRock&Reggae
-----------------------------

Fuente original: LaCuerda
Colaborador original: Ruben Sutera [[email protected]]
Aviso: Este fichero es trabajo propio de su transcriptor y representa su interpretación personal de la canción. El material contenido en esta página es para exclusivo uso privado, por lo que se prohibe su reproducción o retransmisión, así como su uso para fines comerciales.

Califica esta canción


Comentarios en Facebook