Enviado por:
Anonimo

Los Piojos, Arco

Imprimir
Intro
G|--------------------------------|x12
D|-----1-------2--------1-------2-|
A|-2-2---2-2-2----2-2-2---2-2-2---|
E|--------------------------------|

Verso **7VECES**
G|--------------------------------|x2
D|-----1-------2--------1-------2-|
A|-2-2---2-2-2----2-2-2---2-2-2---|
E|--------------------------------|

 |--------------------|
 |--------------------|
 |-----------5-555555-|
 |-3--333333----------|

 |--------------------------------|
 |-----1-------2--------1-------2-|
 |-2-2---2-2-2----2-2-2---2-2-2---|
 |--------------------------------|

Puente (movete así...)
G|---------------|	
D|-----1-------2-|
A|-2-2---2-2-2---| Repite Varias Veces
E|---------------|

y después hace el Verso en la parte de ya nunca no,...

y después el Puente hasta el Final.

Escuchá la canción para saber el ritmo

Fuente original: LaCuerda
Colaborador original: Sebastián Vidondo [[email protected]]
Aviso: Este fichero es trabajo propio de su transcriptor y representa su interpretación personal de la canción. El material contenido en esta página es para exclusivo uso privado, por lo que se prohibe su reproducción o retransmisión, así como su uso para fines comerciales.

Califica esta canción


Comentarios en Facebook