Acordes y tablaturas para guitarra

Acordes y Tablaturas
Usuario: Password:

Buscar:
Acordes y Tablaturas >> Letra L >> Acordes de Los pericos >> Pupilas lejanas
Acordes de Pupilas lejanas, Los pericos

Pupilas lejanas

Los pericos






Acordes:

   Eb    G     Cm    Ab  Bb  F
---6-----3-----3-----4---6---1--
---8-----3-----4-----4---6---1--
---8-----4-----5-----5---7---2--
---8-----5-----5-----6---8---3--
---6-----5-----3-----6---8---3--
---------3-----------4---6---1--

Intro x2 : Eb  G  Cm  Ab

Verso:

Eb                G             Cm    Ab
Tiempo  al tiempo tengo que esperar

Eb             G         Cm    Ab
es la idea y suele condenar

Eb          G            Cm
tu mirada vuelve a penetrar

    Ab
mis pupilas lejanas

Eb         G           Cm    Ab
a ver si todo acaba aquí


Estribillo:

Eb    G             Cm  Ab
Uh no me dejes morir así

Eb    G            Cm
uh no me dejes caer

      Ab
en la trampa

Veo tu sombra contra la pared
don de estoy adonde es mi lugar
paredón me vienes a buscar
tu venganza me alcanza
a ver si todo acaba aquí

Uh no me dejes morir así
uh no me dejes caer
en la trampa

Solo: Cm  Bb  Eb F x2


-----------------------------------------------------------------
-------4-----6/8-6-----------4-3-4-------------------------------
-5-------------------------------------3---------3/5-------------
---------------------------------------------5-------------------
-----------------------------------------------------------------
-----------------------------------------------------------------

---------------------------------6-------------6/8---------------
-------4-----6/8-6-----------4-3---------------------------------
-5---------------------------------------------------------------
-----------------------------------------------------------------
-----------------------------------------------------------------
-----------------------------------------------------------------

Eb           Bb
Sé que ya de todo se ha dicho

Cm               Ab
que mi  andar ya no es igual

Eb            Bb
que mis penas son tu condena

Cm             Ab
que mis ojos son la frialdad

Se que has dado justo en mi pecho
munición a voluntad
déjame salir de este encierro
no soy tu hombre ni tu verdad

Uh no me dejes morir así
uh no me dejes caer
en la trampa

Uh no me dejes morir así
uh no me dejes caer
en la trampa

Tiempo  al tiempo tengo que esperar
esa idea y suele condenar
tu mirada vuelve a penetrar
mis pupilas lejanas
a ver si todo acaba aquí

Uh no me dejes morir así
uh no me dejes caer
en la trampa

Uh no me dejes morir así
uh no me dejes caer
en la trampa

suena re piola

Fuente original: LaCuerda
Colaborador original: mariano alvarez [[email protected]]


Que te parecio? Calificalo con estrellas!!

Rating: 7.0/10 (140 votos)

Este fichero es trabajo propio de su transcriptor y representa su interpretación personal de la canción. El material contenido en esta página es para exclusivo uso privado, por lo que se prohibe su reproducción o retransmisión, así como su uso para fines comerciales.


Deja tus comentarios:

Letras de Los pericos
Letras de canciones | Musica Independiente