Acordes y tablaturas para guitarra

Acordes y Tablaturas
Usuario: Password:

Buscar:
Acordes y Tablaturas >> Letra L >> Acordes de Los pericos >> Me late
Bajo de Me late, Los pericos

Me late

Los pericos






La Afinacion del Bajo Es Normal (E A D G)

  Q=94
 4/4
  Bajo
  W          H    Q  E E   W          H    Q  E E
|----------|-------------|----------|--------------|
|----------|-------------|----------|--------------|
|----------|-------------|----------|--------------|
|----------|-----------3-|----------|-----------3--|


  E S S +S  S S S E S S +S  S E   E S S +S  S S S E S S +S  S S S
|-------------------------------|---------------------------------|
|-------------------------------|---------------------------------|
|-3---3-(3)---3---3---3-(3)---3-|-5---5-(5)---5-------------------|
|-------------------------------|-----------------3---3-(3)---3---|


  E S S +S  S E E S S +S  S E   E S S +S  S S S E S S +S  S S S
|-----------------------------|----------------------------------|
|-----------------------------|----------------------------------|
|-3---3-(3)---3-3---3-(3)---3-|-5---5-(5)---5--------------------|
|-----------------------------|-----------------3---3-(3)---3----|


  E S S +S  S S S E S S +S  S S S   E S S +S  S S S E S S +E  E
|---------------------------------|------------------------------|
|---------------------------------|------------------------------|
|-3---3-(3)---3---3---3-(3)---3---|-5---5-(5)---5----------------|
|---------------------------------|-----------------3---3-(3)-3--|


  E S S +S  S S S E. S +S  S S S   E S S +S  S E E S S +S  S S S
|--------------------------------|--------------------------------|
|--------------------------------|--------------------------------|
|-3---3-(3)---3---3--3-(3)---3---|-5---5-(5)----------------------|
|--------------------------------|-------------5-3---3-(3)---3----|


  E S S +S  S S S E S S +E  S S
|-------------------------------|
|-------------------------------|
|-3---3-(3)---3---3---3-(3)-3---|
|-------------------------------|


  E S S +S  S E E S S +E  S S   E S S +S  S E E S S +S  S E
|-----------------------------|-----------------------------|
|-----------------------------|-----------------------------|
|-5---5-(5)-------------------|-3---3-(3)---3-3---3-(3)---3-|
|-------------5-3---3-(3)-3---|-----------------------------|


  E S S +S  S S S E S S +S  S S S   E. S +S  S S S E S S +S  S S S
|---------------------------------|--------------------------------|
|---------------------------------|--------------------------------|
|-5---5-(5)-----------------------|-3--3-(3)---3---3---3-(3)---3---|
|-------------5---3---3-(3)---3---|--------------------------------|


  E. S +S  S E E. S +S  S S S   E. S +S  S E E. S +S  S S S
|-----------------------------|-----------------------------|
|-----------------------------|-----------------------------|
|-5--5-(5)---5----------------|-3--3-(3)---3-3--3-(3)---3---|
|--------------3--3-(3)---3---|-----------------------------|


  E S S +S  S S S E S S +E  S S
|-------------------------------|
|-------------------------------|
|-5---5-(5)---5-----------------|
|-----------------3---3-(3)-3---|


  E S S +S  S E E S S +S  S E   E S S +S  S S S E S S +S  S E
|-----------------------------|-------------------------------|
|-----------------------------|-------------------------------|
|-3---3-(3)---3-3---3-(3)---3-|-5---5-(5)---5-----------------|
|-----------------------------|-----------------3---3-(3)---3-|


  E S S +S  S S S E S S E S S   E S S +S  S E E S S +S  S S S
|-----------------------------|--------------------------------|
|-----------------------------|--------------------------------|
|-3---3-(3)---3---3---3---3---|-5---5-(5)---5------------------|
|-----------------------------|---------------3---3-(3)---3----|


  E S S +S  S S S E S S +S  S S S   E S S +S  S S S E S S +S  S S S
|---------------------------------|---------------------------------|
|---------------------------------|---------------------------------|
|-3---3-(3)---3---3---3-(3)---3---|-5---5-(5)---5-------------------|
|---------------------------------|-----------------3---3-(3)---3---|


  E S S +S  S S S E S S +S  S E   E S S +S  S E E S S +S  S S S
|-------------------------------|--------------------------------|
|-------------------------------|--------------------------------|
|-3---3-(3)---3---3---3-(3)---4-|-5---5-(5)---5------------------|
|-------------------------------|---------------3---3-(3)---3----|


  E S S +S  S S S E S S +S  S S S   E S S +S  S E E S S +S  S S S
|---------------------------------|-------------------------------|
|---------------------------------|-------------------------------|
|-3---3-(3)---3---3---3-(3)---3---|-5---5-(5)---5-----------------|
|---------------------------------|---------------3---3-(3)---3---|


  E S S +S  S E E S S +S  S S S   E S S +S  S S S E S S +S  S S S
|-------------------------------|---------------------------------|
|-------------------------------|---------------------------------|
|-3---3-(3)---3-3---3-(3)---3---|-5---5-(5)---5-------------------|
|-------------------------------|-----------------3---3-(3)---3---|


  E S S +S  S E E S S +S  S S S   E S S +S  S S S E S S +S  S S S
|-------------------------------|---------------------------------|
|-------------------------------|---------------------------------|
|-3---3-(3)---3-3---3-(3)---3---|-5---5-(5)---5-------------------|
|-------------------------------|-----------------3---3-(3)---3---|


  E S S +S  S E E S S +S  S S S   E S S +S  S S S E S S +S  S S S
|-------------------------------|---------------------------------|
|-------------------------------|---------------------------------|
|-3---3-(3)---3-3---3-(3)---3---|-5---5-(5)---5-------------------|
|-------------------------------|-----------------3---3-(3)---3---|


  E S S +S  S E E S S +S  S S S   E S S +S  S S S E S S +S  S S S
|-------------------------------|---------------------------------|
|-------------------------------|---------------------------------|
|-3---3-(3)---3-3---3-(3)---3---|-5---5-(5)---5-------------------|
|-------------------------------|-----------------3---3-(3)---3---|


  E S S +S  S E E S S +S  S S S   E S S +S  S S S E S S +S  S S S
|-------------------------------|---------------------------------|
|-------------------------------|---------------------------------|
|-3---3-(3)---3-3---3-(3)---3---|-5---5-(5)---5-------------------|
|-------------------------------|-----------------3---3-(3)---3---|


  E S S +S  S E E S S +S  S S S   E S S +S  S S S E S S +S  S S S
|-------------------------------|---------------------------------|
|-------------------------------|---------------------------------|
|-3---3-(3)---3-3---3-(3)---3---|-5---5-(5)---5-------------------|
|-------------------------------|-----------------3---3-(3)---3---|


  E S S +S  S E E S S +S  S S S   E S S +S  S S S E S S +S  S S S
|-------------------------------|---------------------------------|
|-------------------------------|---------------------------------|
|-3---3-(3)---3-3---3-(3)---3---|-5---5-(5)---5-------------------|
|-------------------------------|-----------------3---3-(3)---3---|


  E S S +S  S E E S S +S  S S S   E S S +S  S S S E S S +S  S S S
|-------------------------------|---------------------------------|
|-------------------------------|---------------------------------|
|-3---3-(3)---3-3---3-(3)---3---|-5---5-(5)---5-------------------|
|-------------------------------|-----------------3---3-(3)---3---|


  E S S +S  S E E S S +S  S S S   E S S +S  S S S E S S +S  S S S
|-------------------------------|---------------------------------|
|-------------------------------|---------------------------------|
|-3---3-(3)---3-3---3-(3)---3---|-5---5-(5)---5-------------------|
|-------------------------------|-----------------3---3-(3)---3---|


  E S S +S  S E E S S +S  S S S   E S S +S  S S S E S S +S  S S S
|-------------------------------|---------------------------------|
|-------------------------------|---------------------------------|
|-3---3-(3)---3-3---3-(3)---3---|-5---5-(5)---5-------------------|
|-------------------------------|-----------------3---3-(3)---3---|


  E S S +S  S E E S S +S  S S S   E S S +S  S S S E S S +S  S S S
|-------------------------------|---------------------------------|
|-------------------------------|---------------------------------|
|-3---3-(3)---3-3---3-(3)---3---|-5---5-(5)---5-------------------|
|-------------------------------|-----------------3---3-(3)---3---|


  E S S +S  S S S E S S +S  S S S   E S S +S  S S S E S S +S  S S S
|---------------------------------|---------------------------------|
|---------------------------------|---------------------------------|
|-3---3-(3)---3---3---3-(3)---3---|-5---5-(5)---5-------------------|
|---------------------------------|-----------------3---3-(3)---3---|


  E S S +S  S S S E S S +S  S E   E S S +S  S E E S S +S  S S S
|-------------------------------|--------------------------------|
|-------------------------------|--------------------------------|
|-3---3-(3)---3---3---3-(3)---4-|-5---5-(5)---5------------------|
|-------------------------------|---------------3---3-(3)---3----|


  E S S +S  S S S E S S +S  S S S   E S S +S  S E E S S +S  S S S
|---------------------------------|-------------------------------|
|---------------------------------|-------------------------------|
|-3---3-(3)---3---3---3-(3)---3---|-5---5-(5)---5-----------------|
|---------------------------------|---------------3---3-(3)---3---|


  E S S +S  S E E S S +S  S S S   E S S +S  S S S E S S +S  S S S
|-------------------------------|---------------------------------|
|-------------------------------|---------------------------------|
|-3---3-(3)---3-3---3-(3)---3---|-5---5-(5)---5-------------------|
|-------------------------------|-----------------3---3-(3)---3---|


  E S S +S  S S S E S S +S  S S S   E S S +S  S E E S S +S  S S S
|---------------------------------|-------------------------------|
|---------------------------------|-------------------------------|
|-3---3-(3)---3---3---3-(3)---3---|-5---5-(5)---5-----------------|
|---------------------------------|---------------3---3-(3)---3---|


  E S S +S  S E E S S +S  S S S   E S S +S  S S S E S S +S  S S S
|-------------------------------|---------------------------------|
|-------------------------------|---------------------------------|
|-3---3-(3)---3-3---3-(3)---3---|-5---5-(5)---5-------------------|
|-------------------------------|-----------------3---3-(3)---3---|


  E S S +S  S E E S S +S  S S S   E S S +S  S S S E S S +S  S S S
|-------------------------------|---------------------------------|
|-------------------------------|---------------------------------|
|-3---3-(3)---3-3---3-(3)---3---|-5---5-(5)---5-------------------|
|-------------------------------|-----------------3---3-(3)---3---|


  E S S +S  S E E S S +S  S S S   E S S +S  S S S E S S +S  S S S
|-------------------------------|---------------------------------|
|-------------------------------|---------------------------------|
|-3---3-(3)---3-3---3-(3)---3---|-5---5-(5)---5-------------------|
|-------------------------------|-----------------3---3-(3)---3---|


  E S S +S  S E E S S +S  S S S   E S S +S  S S S E S S +S  S S S
|-------------------------------|---------------------------------|
|-------------------------------|---------------------------------|
|-3---3-(3)---3-3---3-(3)---3---|-5---5-(5)---5-------------------|
|-------------------------------|-----------------3---3-(3)---3---|


  E S S +S  S E E S S +S  S S S
|-------------------------------|
|-------------------------------|
|-3---3-(3)---3-3---3-(3)---3---|
|-------------------------------|


  E S S +S  S S S E S S +S  S S S   E E Q  H
|---------------------------------|-------------*|
|---------------------------------|-------------*|
|-5---5-(5)---5-------------------|-3-----------*|
|-----------------3---3-(3)---3---|-------------*|


FIN!!!
- BUENO AQUI ABAJO ESTA EL SIGNIFICADO DE LAS LETRAS Y LOS SIGNOS...
- ESPERO QUE LES HAYA AGRADADO Y SOBRETODO QUE LE HAYAN ENTENDIDO...
- POR SI ALGUNA RAZON NO LE ENTIENDEN PUES HECHENME UN MAIL A: [email protected]
- SI NO LE ENTIENDES, PUES BORRAR LAS LETRAS Y SE TE HARA COMO UNA TABLATURA NORMAL
- LOS VERE EN LA PROXIMA CANCION!!!...


NOTA!!!: PUEDEN UTILIZAR ESTA TAB PARA PUBLICARLA DONDE USTEDES
QUIERAN, PERO POR FAVOR LES RUEGO QUE ME DEN LOS CREDITOS COMO
TRANSCRIPTOR DE LA MISMA...GRACIAS!!!

NESTOR SADAO ARECHIGA CERVANTES ([email protected])


LEYENDA DE LAS NOTAS:

W = (REDONDA)     NOTA COMPLETA
H = (BLANCA)      MEDIA NOTA
Q = (NEGRA)       CUARTO DE NOTA
E = (CORCHEA)     OCTAVO DE NOTA
S = (SEMICORCHEA) DIECISEISAVA DE NOTA
T = (FUSA)        TREINTAIDOSAVA DE NOTA
X = (SEMIFUSA)    SESENTAICUATROAVA DE NOTA

a  =  ACCIACCATURA
+  =  LIGADURA
.  =  AUMENTA LA DURACION DE LA NOTA
.. =  AUMENTA LA DOBLE DE LA DURACION DE LA NOTA

LEYENDA DE LOS SIMBOLOS:

 h   - HAMMER-ON
 p   - PULL-OFF
 b   - BEND
 pb  - PRE-BEND
 r   - BEND RELASE(SI NO HAY UN NUMERO DESPUES DEL LA r, ENTONCES EL RELASE ES INMEDIATO)
 /  - SLIDE
 s   - LEGATO SLIDE
 S   - SHIFT SLIDE
<n>  - HARMONICOS NATURALES
[n]  - HARMONICOS ARTIFICIALES
n(n) - HARMONICO ATRAVEZ DE UN TAP
 ~   - VIBRACION
 tr  - TRINO
 T   - TAP
 TP  - TREM. PICKING
 PM  - PALM MUTING

/  - tremolo bar dip; n = amount to dip
 
  - TREMOLO BAR DOWN
 n/  - TREMOLO BAR UP
/n  - TREMOLO BAR INVERTED DIP
 =   - SONTENIENDO UN BEND; TAMBIEN ACTUA COMO UN CONECTOR PARA HAMMERS Y PULLS
 <>  - NIVEL DEL VOLUMEN
 x   - NOTA APAGADA
 o   - REPRESENTA UNA NOTA CORTADA


LEYENDA DEL PENTAGRAMA
 |  - COMPAS
||  - DOBLE COMPAS
||o - ES DONDE VA A COMENZAR CUANDO ALGO SE VA A REPETIR
o|| - ES DONDE VA A TERMINAR CUANDO ALGO SE VA A REPETIR
*|  - FIN DE LA CANCION
 :  - COMPAS LIBRE
 $  - SEGNO (AL VER ESTE SIGNO, TENEMOS QUE RETROCEDER HASTA VER EL SIGNO ANTERIOR $...)
 &  - CODA (SIGNIFICA QUE DEBES PASAR LA SIGUIENTE SIGNO &)

Fuente original: LaCuerda
Colaborador original: sNaKePiTs [Nestor Sadao Arechiga Cervantes]

Que te parecio? Calificalo con estrellas!!

Rating: 2.5/10 (11 votos)

Este fichero es trabajo propio de su transcriptor y representa su interpretación personal de la canción. El material contenido en esta página es para exclusivo uso privado, por lo que se prohibe su reproducción o retransmisión, así como su uso para fines comerciales.


Deja tus comentarios:

Letras de Los pericos
Letras de canciones | Musica Independiente