Acordes y tablaturas para guitarra

Acordes y Tablaturas
Usuario: Password:

Buscar:
Acordes y Tablaturas >> Letra L >> Acordes de Los pericos >> Fronteras en america
Bajo de Fronteras en america, Los pericos

Fronteras en america

Los pericos






Intro
G|--------|---------|
D|--------|---------|
A|-55-4-5-|-5-450-4-|
E|--------|---------|
 |4 Veces | 8 Veces |

Verso
G|---------|x8
D|---------|
A|-5-450-4-|
E|---------|

Coro
G|---------|x8
D|---------|
A|-5-450-4-|
E|---------|

Puente
G|---------|x4
D|---------|
A|-5-450-4-|
E|---------|

Verso 2
G|------------------------------|x4
D|------------------------------|
A|--4---5--4---5---6---7--6---7-|
E|-5--55--5--55---7--77--7--77--|

Coro
G|---------|x4
D|---------|
A|-5-450-4-|
E|---------|

Puente
G|---------|x8
D|---------|
A|-5-450-4-|
E|---------|

Verso 2
G|------------------------------|x4
D|------------------------------|
A|--4---5--4---5---6---7--6---7-|
E|-5--55--5--55---7--77--7--77--|

Puente 2
G|--------|x8
D|--------|
A|-55-4-5-|
E|--------|

Solo de Saxo
G|--------------------------|x4
D|--------------------------|
A|--------------------------|
E|-3-123-54--3-123--111-2-3-|

Coro 2 (hasta el final)
G|------------|
D|--4---------|
A|-5-5--0-4-0-| Mas o Menos 24 veces
E|------------|

Escuchá la canción para saber el ritmo

Fuente original: LaCuerda
Colaborador original: Sebastián Vidondo [[email protected]]

Que te parecio? Calificalo con estrellas!!

Rating: 1.8/10 (9 votos)

Este fichero es trabajo propio de su transcriptor y representa su interpretación personal de la canción. El material contenido en esta página es para exclusivo uso privado, por lo que se prohibe su reproducción o retransmisión, así como su uso para fines comerciales.


Deja tus comentarios:

Letras de Los pericos
Letras de canciones | Musica Independiente