Acordes y tablaturas para guitarra

Acordes y Tablaturas
Usuario: Password:

Buscar:
Acordes y Tablaturas >> Letra L >> Acordes de Los pelotas >> Mareada
Acordes de Mareada, Los pelotas

Mareada

Los pelotas






a.bm.d.e.g.
 Intro
[G D A A] x4

Ruiditos
    G           D           A          A  
e-|-3h5p3h5p3h5------------------------------------------|----|
B-|-------------3h5p3h5p3h5------------------------------|----|
G-|-------------------------0h2p0h2p0h2------------------|----|
D-|------------------------------------0h2p0h2p0h2-------|-x4-|
A-|------------------------------------------------------|----|
E-|------------------------------------------------------|----|


[Estrofa]
G         D          A 
 Mareada por la ilusion
G           D          A 
 de ver al mundo sobre sí
G         D            A 
 no le importa si lo blanco se le oscureció,
G   D      A 
 parece feliz

[Estrofa]
Podía haber sido mejor
no sé es valiente al decidir
las lentejuelas no te sirven, no renuncies más,
vuelve a vivir.

[Estribillo]
Bm                D
  Sin novelas ni almidon,
E                G
  no sabés vivir, falta de ilusion
Bm            D
  Que podrias aprender
E             
 solo a mentir mejor

[Estrofa]
Presientes hueles el dolor
que se presenta al respirar
no te importe si no puedes, si no quieres más,
vuelve a soñar
[Estrofa]
Si cada día mata el Sol 
o cada vez escuchas más
si no hay naves que te lleven donde estar mejor,
vuelve a caminar.

[Estribillo]
Sin novelas ni almidón,
no sabés vivir, falta de ilusion
Que podrias aprender
solo a mentir mejor

Inter:
    G G  D E D  G A 
e-|------------------|-    -|
B-|------------------|-    -|
G-|------7-9-7-------|-    -|
D-|-5-5--7-9-7--5-7--|-[x4]-|
A-|-5-5--5-7-5--5-7--|-    -|
E-|-3-3---------3-5--|-    -|


[sigue todo G D A A]
Mareada entras donde no vas no vas
Mareada vas y levantas .... 

Fuente original: LaCuerda
Colaborador original: Esteban Bailone

Que te parecio? Calificalo con estrellas!!

Rating: 4.7/10 (11 votos)

Este fichero es trabajo propio de su transcriptor y representa su interpretación personal de la canción. El material contenido en esta página es para exclusivo uso privado, por lo que se prohibe su reproducción o retransmisión, así como su uso para fines comerciales.


Deja tus comentarios:
Letras de canciones | Musica Independiente