Acordes y tablaturas para guitarra

Acordes y Tablaturas
Usuario: Password:

Buscar:
Acordes y Tablaturas >> Letra P >> Acordes de Patricio rey y sus redonditos de ricota >> Noticias de ayer
Tablatura de Noticias de ayer, Patricio rey y sus redonditos de ricota

Noticias de ayer

Patricio rey y sus redonditos de ricota






Noticias de ayer.
Intro:
GUITARRA:  SOl       (riff 1)                                    MI (riff 2)
e|-----------------------------------------------|--|----------------------------------(0)|--|
B|-----------------------------------------------|--|----------------------------------(8)|--|
G|-----------------------------------------------|--|----------------------------------(9)|X2|
D|---------3---3----3---3----------3---3---(3)-/-|X2|----------------------------------(9)|--|
A|-----------------------------------------------|--|---------7-5-7-5----5-7----7-5-7--(7)|--|
E|-0-1-2-3---3---3----3----0-1-2-3---3---3-------|--|-3-2-1-0----------7------0-----------|--|

BAJO:   Sol                                                MI
G|-----------------------------------------------|--|-------------------------------------|--|
D|---------3---3----3---3----------3---3----3--ƒ-|X2|-------------------------------------|X2|
A|-----------------------------------------------|--|-------------------------------------|--|
E|-0-1-2-3---3---3----3----0-1-2-3---3---3-------|--|-3-2-1-0-0-0-0-0-0-0-0-0-0-0-0-0-0-0-|--|


VERSO 1:

GUITARRA:  SOl                                  do sib             
e|---------------------------------------------------|----------------------------|-----|
B|---------------------------------------------------|----------------------------|-----|
G|---------------------------------------------------|----------------------------|-----|
D|---------3---3----3---3----------3---3----3---5-(3)|---------3---3----3---3-----|-X2--|
A|----------------------------------------------5-(3)|----------------------------|-----|
E|-0-1-2-3---3---3----3----0-1-2-3---3---3----3------|-0-1-2-3---3---3----3-------|-----|

BAJO:   Sol                                                MI
G|---------------------------------------------------|----------------------------|-----|
D|---------3---3----3---3----------3---3----3---3----|---------3--3---3---3---3---|-----|
A|---------------------------------------------------|----------------------------|-X2--|
E|-0-1-2-3---3---3----3----0-1-2-3---3---3----3---3--|-0-1-2-3--3---3---3---3-----|-----|


  No se muy bien sobre que pierna bailo
  (a veces me agarra)
  perdí mi cupo para gas nervioso
  y noticias piratas


ESTRIBILLO 1:


Intro:
GUITARRA:  mi       (riff 2)                            
e||----------------------------------(0)|
B||----------------------------------(8)|
G||----------------------------------(9)|X2
D||----------------------------------(9)|
A||---------7-5-7-5----5-7----7-5-7--(7)|
E||-3-2-1-0----------7------0-----------|

BAJO:            MI
G||-------------------------------------|
D||-------------------------------------|x2
A||-------------------------------------|
E||-3-2-1-0-0-0-0-0-0-0-0-0-0-0-0-0-0-0-|

  Noticias de ayer extra! extra!
  Noticias de ayer extra! extra!


PUENTE :[RIFF 1 ]x1

GUITARRA:  SOl       (riff 1)                                 
e|-----------------------------------------------|--|
B|-----------------------------------------------|--|
G|-----------------------------------------------|--|
D|---------3---3----3---3----------3---3---(3)-/-|X1|
A|-----------------------------------------------|--|
E|-0-1-2-3---3---3----3----0-1-2-3---3---3-------|--|


VERSO 2: (igual)

 buenos atracos perfectos atentados
 bien iluminados
 las monjas verdes revolucionarias 
 para gran consumo. 


ESTRIBILLO 2: (igual)

  Noticias de ayer extra! extra!
  Noticias de ayer extra! extra!


SOLO DE GUITARRA 1:

BAJO:   Sol                                                MI
G|-----------------------------------------------|--|-------------------------------------|--|
D|---------3---3----3---3----------3---3----3--ƒ-|X2|-------------------------------------|X2|
A|-----------------------------------------------|--|-------------------------------------|--|
E|-0-1-2-3---3---3----3----0-1-2-3---3---3-------|--|-3-2-1-0-0-0-0-0-0-0-0-0-0-0-0-0-0-0-|--|


GUITARRA:                SOBRE RIFF 1 (sol)
e|-------------------------------------|------------------------------------------|-------------|
B|-------------------------------------|------------------------------------------|-------------|
G|-5-4------5-4------5-4------5-4------|-5-4------5-4-----5-4-5-4-------5-4-------|-------------|
D|-----5-3------5-3------5-3------5-(3)|-----5-3------5-3----------5-3------5-(3)-|-2^0^2^0^2^0^|
A|-------------------------------------|------------------------------------------|-------------|
E|-------------------------------------|------------------------------------------|-------------|
  SObre RIFF 2
e|-12-12-12-12--12~--|-------------------------------------------------------|
B|-12-12-12-12--12~--|12-12-12-12-12-----------------------------14-12-14-12-|
G|-------------------|12-12-12-12-12----12-14b-14b--14p13p12-----14-12-14-12-|
D|-------------------|---------------14----------------------14--------------|
A|-------------------|-------------------------------------------------------|
E|-------------------|-------------------------------------------------------|


PUENTE (RIFF 1) X1


VERSO 3: (Igual)

 Se desgracio el campeon del hiper futbol
 primero en el ranking
 los guerrilleros eran saharalies
 abajo en la tabla

ESTRIBILLO 3: (igual)

  Noticias de ayer extra! extra!
  Noticias de ayer extra! extra!


REPITE PUENTE: (Igual)


VERSO 4: (Igual)

 Interminables cadenas de video
 la presion sujetan
 Buenas noticias, sabrosas telefotos
 ¡ A tragar sin culpa!


ESTRIBILLO 4 (Igual)

  Noticias de ayer extra! extra!
  Noticias de ayer extra! extra!


SOLO DE GUITARRA 2:
                                                    ________X2______________   _______X2_______
BAJO:   Sol                                        |                        | |                | 
G|-----------------------------------------|---|--|----------------------|---|----------------|-|
D|---------3---3--3---3---------3---3----3-|-ƒ-|X2|---------5---5---5---5|-ƒ-|-----8--8--8--8-|ƒ|
A|-----------------------------------------|---|--|----------------------|---|----------------|-|
E|-0-1-2-3---3---3--3---0-1-2-3---3---3----|---|--|-2-3-4-5---5---5---5--|---|5678--8---8--8--|-|
    MI
----------------------------------|
----------------------------------|
----------------------------------|
-0-0-0-0--0-0-0-0-0-0-0-0-0-0-0-0-|


GUITARRA (solo):
               SOBRE RIFF 1 (sol)
e|-------------------------------------|------------------------------------------|-------------
B|-------------------------------------|------------------------------------------|-------------
G|-5-4------5-4------5-4------5-4------|-7-6------7-6-----7-6-7-6-------7-6-------|-10-9--------
D|-----5-3------5-3------5-3------5-(3)|-----7-5------7-5----------7-5------7-(5)-|------10-8---
A|-------------------------------------|------------------------------------------|-------------
E|-------------------------------------|------------------------------------------|-------------
                                          SOBRE MI
e|---------------------------------------|-12-12-12-12-12--------------------------|
B|---------------------------------------|-12-12-12-12-12--14-14-14-14-14---(12)---|
G|-10-9------10-9--10-9------10-9--------|-----------------14-14-14-14-14---(12)---|
D|------10-8------------10-8------10-(8)-|-----------------------------------------|
A|---------------------------------------|-----------------------------------------|
E|---------------------------------------|-----------------------------------------|

e||-12-12-12-12--12~--|-------------------------------------------------------|
B||-12-12-12-12--12~--|12-12-12-12-12-----------------------------14-12-14-12-|
G||-------------------|12-12-12-12-12----12-14b-14b--14p13p12-----14-12-14-12-|
D||-------------------|---------------14----------------------14--------------|
A||-------------------|-------------------------------------------------------|
E||-------------------|-------------------------------------------------------|


REPITE PUENTE:..



VERSO 5: (Igual)

 Rock maravilla para todo el mundo
 que gocen los ratones
 Bandas derviches, mortales escabeches,
 mostrando sus trucos.

ESTRIBILLO 5: (igual)

  Noticias de ayer extra! extra!
  Noticias de ayer extra! extra!


SOLO de GUITARRA 3: 

                                                    ________X2______________   _______X2_______
BAJO:   Sol                                        |                        | |                | 
G|-----------------------------------------|---|--|----------------------|---|----------------|-|
D|---------3---3--3---3---------3---3----3-|-ƒ-|X2|---------5---5---5---5|-ƒ-|-----8--8--8--8-|ƒ|
A|-----------------------------------------|---|--|----------------------|---|----------------|-|
E|-0-1-2-3---3---3--3---0-1-2-3---3---3----|---|--|-2-3-4-5---5---5---5--|---|5678--8---8--8-/|-|
    MI
----------------------------------|
----------------------------------|
----------------------------------|
-0-0-0-0--0-0-0-0-0-0-0-0-0-0-0-0-|

GUITARRA (solo):

              SOBRE RIFF 1 (sol)
e|-------------------------------------|------------------------------------------|-------------
B|-------------------------------------|------------------------------------------|-------------
G|-5-4------5-4------5-4------5-4------|-7-6------7-6-----7-6-7-6-------7-6-------|-10-9--------
D|-----5-3------5-3------5-3------5-(3)|-----7-5------7-5----------7-5------7-(5)-|------10-8-10
A|-------------------------------------|------------------------------------------|-------------
E|-------------------------------------|------------------------------------------|-------------
                                            SOBRE mi
e|----------------------------------------|-12-12-12-12-12--------------------------|
B|------8-------------------8-------------|-12-12-12-12-12--14-14-14-14-14---(12)---|
G|-9-10---10-9---------9-10---10-(9)------|-----------------14-14-14-14-14---(12)---|
D|-------------10-8-10--------------10-(8)|-----------------------------------------|
A|----------------------------------------|-----------------------------------------|
E|----------------------------------------|-----------------------------------------|

e||-12-12-12-12--12~--|-------------------------------------------------------|
B||-12-12-12-12--12~--|12-12-12-12-12-----------------------------14-12-14-12-|
G||-------------------|12-12-12-12-12----12-14b-14b--14p13p12-----14-12-14-12-|
D||-------------------|---------------14----------------------14--------------|
A||-------------------|-------------------------------------------------------|
E||-------------------|-------------------------------------------------------|


FINAL:
GUITARRA:
e|-----------------------------|
B|-----------------------------|
G|--------------------------ƒ--|
D|----------3----3----(3)------|
A|-----------------------------|
E|-0-1-2-3-----3----3----------|

BAJO:
G|--------------------------ƒ--|
D|----------3----3----(3)------|
A|-----------------------------|
E|-0-1-2-3-----3----3----------|

Fuente original: LaCuerda
Colaborador original: Guille [[email protected]]

Que te parecio? Calificalo con estrellas!!

Rating: 5.0/10 (11 votos)

Este fichero es trabajo propio de su transcriptor y representa su interpretación personal de la canción. El material contenido en esta página es para exclusivo uso privado, por lo que se prohibe su reproducción o retransmisión, así como su uso para fines comerciales.


Deja tus comentarios:

Letras de Patricio rey y sus redonditos de ricota
Letras de canciones | Musica Independiente