Patricio Rey Y Sus Redonditos De Ricota, Espejismo

Imprimir
Intro
G|-------------------|--------------------|------------------|
D|-------------------|--------------------|------------------|
A|-(5)-4(5)----------|-4(5)-4(5)----------|------------------|
E|---------2(3)-2(3)-|----------2(3)-2(3)-|-(5)-(5)--(3)-(3)-|

Verso
G|-------------------|--------------------|------------------|
D|-------------------|--------------------|------------------|
A|-(5)-4(5)----------|-4(5)-4(5)----------|------------------|
E|---------2(3)-2(3)-|----------2(3)-2(3)-|-(5)-(5)--(3)-(3)-|

Solo de Saxo
G|------------------------|x2
D|------------------------|
A|-55555555----------5--5-|
E|---------33333333-5--5--|

Verso
G|-------------------|--------------------|------------------|
D|-------------------|--------------------|------------------|
A|-(5)-4(5)----------|-4(5)-4(5)----------|------------------|
E|---------2(3)-2(3)-|----------2(3)-2(3)-|-(5)-(5)--(3)-(3)-|

Solo de Violín
G|-------------------|--------------------|------------------|
D|-------------------|--------------------|------------------|
A|-(5)-4(5)----------|-4(5)-4(5)----------|------------------|
E|---------2(3)-2(3)-|----------2(3)-2(3)-|-(5)-(5)--(3)-(3)-|

Verso
G|-------------------|--------------------|------------------|
D|-------------------|--------------------|------------------|
A|-(5)-4(5)----------|-4(5)-4(5)----------|------------------|
E|---------2(3)-2(3)-|----------2(3)-2(3)-|-(5)-(5)--(3)-(3)-|

Solo de Saxo (Hasta el Final)
G|------------------------|
D|------------------------|
A|-55555555----------5--5-|
E|---------33333333-5--5--|

Escuchá la canción para saber  el ritmo

Fuente original: LaCuerda
Colaborador original: Sebastián Vidondo [[email protected]]
Aviso: Este fichero es trabajo propio de su transcriptor y representa su interpretación personal de la canción. El material contenido en esta página es para exclusivo uso privado, por lo que se prohibe su reproducción o retransmisión, así como su uso para fines comerciales.

Califica esta canción


Comentarios en Facebook