Patricio Rey Y Sus Redonditos De Ricota, El Templo De Momo

Leyenda

<>= Armónicos                h = Hammer on 
/ = Arrastres	          p = Pull off 
~ = Vibratos                 t = Tapping
^ = Estiradas o Bends        r = Soltar la estirada
                             
---------------------------------------------------
Intro (con distorsión)

1|--------------------------------------------------> 
2|-------------------------------------------------->
3|------2---------2--4--4--2---2--------------------> 
4|---0----4~----0------------4---4~---0--2--4--4--2->
5|-0----------0---------------------0---------------> 
6|-------------------------------------------------->
                                                        
1>--------------------------------------------------|  
2>--------------------------------------------------|
3>--------------------------------------------------| 
4>--0---2h4p2---2h4p2----0--------------------------|
5>--------------------------2~----2----0------2/5~--| 
6>--------------------------------------------------|

{D  Dsus4 - Am7   C}  (x4)  Em


D  Dsus4       Am7  C 
El zumba se colgó 

D  Dsus4       Am7  C 
del bondi a Finisterre

D  Dsus4       Am7  C 
rajando del amor 

D  Dsus4       Am7  C 
detrás de un beso nuevo


Em        G          A       Em            
Con lo que cuesta armar un full

   G          A       Em            
armar algun puto full

   G          A       Em      G - A     
y jugarlo en este paño, Dios!


D  Dsus4       Am  C   
Gualicho de olvidar 
apretado en las manos
Las despedidas son 
de esos dolores dulces


Em        G          A       Em            
Con lo que cuesta armar un full
armar algun puto full
y jugarlo en este paño, Dios!


Solo de trompeta: {G7 - E7 - C7- A7}
                  {D - Dsus4} (x4)  

D  Dsus4       Am7  C 
Caldos de Venus que
son como agua bendita
y un par de rounds de amor
con la tele encendida


Em        G          A       Em            
Con lo que cuesta armar un full
armar algun puto full
y jugarlo en este paño, Dios!


D  Dsus4       Am7  C 
Puede ser chaparrón 
pero también tormenta
No quiero verte más! 
sera asi mi ceguera?


Em        G          A       Em            
Con lo que cuesta armar un full
armar algun puto full
y jugarlo en este paño, Dios!

Final: {A - Em}

Fuente original: LaCuerda
Colaborador original: Capitán Nemo [[email protected]]
Aviso: Este fichero es trabajo propio de su transcriptor y representa su interpretación personal de la canción. El material contenido en esta página es para exclusivo uso privado, por lo que se prohibe su reproducción o retransmisión, así como su uso para fines comerciales.

Califica esta canción


Comentarios en Facebook