Acordes y tablaturas para guitarra

Acordes y Tablaturas
Usuario: Password:

Buscar:
Acordes y Tablaturas >> Letra P >> Acordes de Patricio rey y sus redonditos de ricota >> El pibe de los astilleros
Tablatura de El pibe de los astilleros, Patricio rey y sus redonditos de ricota

El pibe de los astilleros

Patricio rey y sus redonditos de ricota






Patricio Rey y sus Redonditos de Ricota 
El Pibe de los Astilleros (TAB)  
[email protected]   
            
INTRO : (PUENTE)  (2 VECES) 


*Eduardo Skay Beilinson (Guitarra)
    MI     SOL       RE       SOL       MI     SOL      RE         MI
E|------|--------|----------|--------|------|--------|----------|-------------|
B|------|--------|----------|--------|------|--------|----------|-------------|
G|-9-9-7|9-7-----|----------|--------|-9-9-7|9-7-----|----------|-------------|
D|------|----9-9-|-5-7-7-5--|5-------|------|----9-9-|-5-7-7-5--|-------------|
A|------|--------|---------7|--7-5---|------|--------|---------7|7~------5-7--|
E|------|--------|----------|------7-|------|--------|----------|----5-7------|

*2da Guitarra  

E|-7-7-5|7-5-----|----------|--------|-7-7-5|7-5-----|----------|-------------|
B|------|----7-7-|-3-5-5-3--|3-------|------|----7-7-|-3-5-5-3--|-------------|
G|------|--------|---------4|--4-2---|------|--------|---------4|4~~~~~~------|
D|------|--------|----------|------4-|------|--------|----------|-------------|
A|------|--------|----------|--------|------|--------|----------|-------------|
E|------|--------|----------|--------|------|--------|----------|-------------|

*Semilla Bucciarelli (BAJO)
    MI     SOL      RE         SOL      MI      SOL     RE         MI
G|------|--------|----------|--------|------|--------|----------|-------------|
D|-2-2--|--------|----------|--------|-2-2--|--------|--0-------|----2--------|
A|------|--------|--5--5----|--------|------|--------|-----2----|-------------|
E|------|-3-3--3-|----------|-3-3--3-|------|-3-3--3-|----------|---------0---|

[REPITE]

*Eduardo Skay Beilinson (Guitarra)
   MI       SOL       RE       SOL     MI      SOL      RE         MI
E|------|--------|----------|--------|------|--------|----------|-------------|
B|------|--------|----------|--------|------|--------|----------|-------------|
G|-9-9-7|9-7-----|----------|--------|-9-9-7|9-7-----|----------|-------------|
D|------|----9-9-|-5-7-7-5--|5-------|------|----9-9-|-5-7-7-5--|-------------|
A|------|--------|---------7|--7-5---|------|--------|---------7|7~~~~~~~-----|
E|------|--------|----------|------7-|------|--------|----------|-------------|

*2da Guitarra 

E|-7-7-5|7-5-----|----------|--------|-7-7-5|7-5-----|----------|-------------|
B|------|----7-7-|-3-5-5-3--|3-------|------|----7-7-|-3-5-5-3--|-------------|
G|------|--------|---------4|--4-2---|------|--------|---------4|4~~~~~~------|
D|------|--------|----------|------4-|------|--------|----------|-------------|
A|------|--------|----------|--------|------|--------|----------|-------------|
E|------|--------|----------|--------|------|--------|----------|-------------|

*Semilla Bucciarelli (BAJO)
     MI    SOL       RE        SOL      MI     SOL      RE          MI
G|------|--------|----------|--------|------|--------|----------|-------------|
D|-2-2--|--------|----------|--------|-2-2--|--------|--0-------|---(2)-------|
A|------|--------|--5--5----|--------|------|--------|-----2----|-------------|
E|------|-3-3--3-|----------|-3-3--3-|------|-3-3--3-|----------|-------------|




1er VERSO:



*Skay Beilinson Toca estas notas.


MIm            SOL       DO          RE
Fue unos meses a Caseros y su strato roja,
MIm             SOL       DO              RE     
se hizo el torbellino que hoy suena en la radio.
MIm       SOL      DO       RE   
La ceniza no caía desde su cigarro 
MIm              RE     DO    DO
y estaba en sus ojos desarmándote,



*BAJO (Mientras la guitarra toca las notas)

   MI    SOL      DO     RE      MI     SOL      DO     RE     MI    SOL      DO  
G|-----|--------|-----|--------|-----|-0-0--0-|-----|--------|-----|--------|-----
D|-----|--------|-----|-0-0--0-|-2-2-|--------|-----|-0-0--0-|-2-2-|--------|-----
A|-----|--------|-3-3-|--------|-----|--------|-3-3-|--------|-----|--------|-3-3-
E|-0-0-|-3-3--3-|-----|--------|-----|--------|-----|--------|-----|-3-3--3-|-----
 RE        MI     RE      DO    DO
--------|-----|--------|-----|--------|
-0-0--0-|-2-2-|-0-0--0-|-----|--------|
--------|-----|--------|-3-3-|-3-3--3-|
--------|-----|--------|-----|--------|


PUENTE:



*Skay Beilinson (Guitarra)
   MI       SOL       RE       SOL     MI      SOL      RE         MI
E|------|--------|----------|--------|------|--------|----------|-------------|
B|------|--------|----------|--------|------|--------|----------|-------------|
G|-9-9-7|9-7-----|----------|--------|-9-9-7|9-7-----|----------|-------------|
D|------|----9-9-|-5-7-7-5--|5-------|------|----9-9-|-5-7-7-5--|-------------|
A|------|--------|---------7|--7-5---|------|--------|---------7|7~~~~~~~-----|
E|------|--------|----------|------7-|------|--------|----------|-------------|

*2da Guitarra 

E|-7-7-5|7-5-----|----------|--------|-7-7-5|7-5-----|----------|-------------|
B|------|----7-7-|-3-5-5-3--|3-------|------|----7-7-|-3-5-5-3--|-------------|
G|------|--------|---------4|--4-2---|------|--------|---------4|4~~~~~~------|
D|------|--------|----------|------4-|------|--------|----------|-------------|
A|------|--------|----------|--------|------|--------|----------|-------------|
E|------|--------|----------|--------|------|--------|----------|-------------|

*Semilla Bucciarelli (BAJO)
     MI    SOL       RE        SOL      MI     SOL      RE          MI
G|------|--------|----------|--------|------|--------|----------|-------------|
D|-2-2--|--------|----------|--------|-2-2--|--------|--0-------|---(2)-------|
A|------|--------|--5--5----|--------|------|--------|-----2----|-------------|
E|------|-3-3--3-|----------|-3-3--3-|------|-3-3--3-|----------|-------------|



2do VERSO:

   (Igual que el primer verso)

MIm         SOL          DO        RE
Alquiló una rana rubia, tibia y haragana,
MIm    SOL    DO        RE   
 se moría de ganas de matarla,
MIm   SOL   DO         RE 
Una linda damita de concordia,
MIm            RE      DO  
el mas bello fuselaje que jamas lustró.


[REPITE EL PUENTE]




ESTRIBILLO:



*Guitarra 2

    SI7               SI7                 SI7                 SI7
E|-(7)|----|----|----|(7)|----|----|-----|-(7)|~~~~|----|-----|-(7)-|----|----|---|
B|-(7)|----|----|----|(7)|----|----|-----|-(7)|~~~~|----|-----|-(7)-|----|----|---|
G|-(8)|----|----|----|(8)|----|----|-----|-(8)|~~~~|----|-----|-(8)-|----|----|---|
D|-(7)|----|----|----|(7)|----|----|-----|-(7)|~~~~|----|-----|-(7)-|----|----|---|
A|-(9)|----|----|----|(9)|----|----|-----|-(9)|~~~~|----|-----|-(9)-|----|----|---|
E|-(7)|----|----|----|(7)|----|----|-----|-(7)|~~~~|----|-----|-(7)-|----|----|---|

*Skay Bellinson  (Durate el estribillo)

E|----|----|----|8^5-|---|----|----|5^---|----|----|----|7^8-7|-(7)~|~~~~|~~--|7~~|
B|----|----|----|---8|(7)|~~~~|~~--|--7-5|-(4)|~~~~|~---|-----|-----|----|----|---|
G|----|----|----|----|---|----|----|-----|----|----|----|-----|-----|----|----|---|
D|----|----|----|----|---|----|----|-----|----|----|----|-----|-----|----|----|---|
A|----|----|----|----|---|----|----|-----|----|----|----|-----|-----|----|----|---|
E|----|----|----|----|---|----|----|-----|----|----|----|-----|-----|----|----|---|

*BAJO
   SI   SI   DO   LA  SI   SI   DO   LA   SI   SI   DO   LA   SI    SI   DO  LA   
G|----|----|----|----|---|----|----|-----|----|----|----|-----|-----|----|----|---|
D|----|----|----|----|---|----|----|-----|----|----|----|-----|-----|----|----|(0)|
A|-(2)|(2)-|(3)-|(0)-|(2)|(2)-|(3)-|(0)--|-(2)|(2)-|(3)-|(0)--|-(2)-|(2)-|-(3)|---|
E|----|----|----|----|---|----|----|-----|----|----|----|-----|-----|----|----|---|


SI7                     DO         LA
  Le hizo un par de promesas imprudentes
SI7                DO         LA
  y así fue que de ella se aburrió.
SI7            DO        LA
  Las minitas aman los payasos
SI7          DO  RE     MIm  + (PUENTE)
  y la pasta de campeón.


[PUENTE]



3er VERSO:



*Skay Beilinson  (Toca esto mientras la 2da guitarra y el bajo tocan las notas)
*(Guitarra con distorcion)
                      [ Riff 1........]                   [ Riff 2............]
E|-----|--------|-----|----------|-----|--------|-----|-----------|11-12|~~~~~~--|-----
B|-----|--------|-----|11^10-11--|-----|--------|-----|15-12-15-12|-----|--------|-----
G|-----|--------|-----|--------12|12~~~|~-------|-----|-----------|-----|--------|-----
D|-----|--------|-----|----------|-----|--------|-----|-----------|-----|--------|-----
A|-----|--------|-----|----------|-----|--------|-----|-----------|-----|--------|-----
E|-----|--------|-----|----------|-----|--------|-----|-----------|-----|--------|-----

[ RIFF3........] [ RIFF  4  ..................  ]
17b-17b|(17)~~--|3-0---0-|-0-----------|--------||
-------|--------|----0---|3--3-0--0----|--------||
-------|--------|--------|-------2--2-0|---2-0--||
-------|--------|--------|-------------|-2------||
-------|--------|--------|-------------|--------||
-------|--------|--------|-------------|--------||


*BAJO

   MI    SOL      DO     RE         MI     SOL     DO     RE       MI    SOL      DO  
G|-----|--------|-----|----------|-----|-0-0--0-|-----|-----------|-----|--------|-----
D|-----|--------|-----|-0-0---0--|-2-2-|--------|-----|-0-0---0---|-2-2-|--------|-----
A|-----|--------|-3-3-|----------|-----|--------|-3-3-|-----------|-----|--------|-3-3-
E|-0-0-|-3-3--3-|-----|----------|-----|--------|-----|-----------|-----|-3-3--3-|-----
 RE        MI     RE      DO             DO
-------|--------|--------|-------------|--------||
-0-0--0|-2---2--|-0-0--0-|-------------|--------||
-------|--------|--------|-3-3---------|-3-3--3-||
-------|--------|--------|-------------|--------||



MIm            SOL         DO       RE+ (Riff 1)
El pibe de los astilleros nunca se rendía,
MIm       SOL      DO          RE +(Riff 2) 
tuvo un palacete por un par de días.
MIm SOL    DO            RE + (Riff 3)
Rapiñaba montado a los containers,
MIm        RE +(Riff 4)    DO
el maldito amor que tanto miedo da.


SOLO DE SAXO:



*Skay Beilinson (mientras toca el solo, con el saxo)  


[Sol-Re-Do-Re-Sol-Re-Do-Re-Sol-Re-Do-Re-Mi-Re-Do-Do]


*BAJO
   Sol   Re     Do     Re    Sol   Re    Do    Re      Sol  Re     Do     Re
G|----|-------|----|-------|----|-------|----|-------|----|-------|----|-------|
D|----|-0-0-0-|----|-0-0-0-|----|-0-0-0-|----|-0-0-0-|----|-0-0-0-|----|-0-0-0-|
A|----|-------|3-3-|-------|----|-------|3-3-|-------|----|-------|3-3-|-------|
E|3-3-|-------|----|-------|3-3-|-------|----|-------|3-3-|-------|----|-------|

Mi       Re      Do    Do
------|-------|-----|-------||
-2-2--|-0-0-0-|-----|-------||
------|-------|-3-3-|3-3-3--||
------|-------|-----|-------||



4to VERSO: 

 (Bajo y 2da Guitarra toca lo mismo que en los otros versos)

Mim         Sol     Do           Re+ Riff a
Fue por una lluvia que realmente moje
Mim     Sol   Do          RE+ Riff b
(que pusiera fin a su aventura).
Mim   Sol   Do         Re+Riffc  Mim         Re       Do 
Un final feliz para pimpollos, allí estaba, al fin, acechándolo


*Skay Beilinson   ( En este verso toca estos Riff)

  Mi  Sol  DO   RE    MI SOL DO   RE         MI SOL  DO   RE       MI RE DO
E|---|---|--|-(12)~~|---|---|--|-----------|---|---|---|----------|--|--|---|
G|---|---|--|-------|---|---|--|-----------|---|---|---|----------|--|--|---|
E|---|---|--|-------|---|---|--|3-2-0-2-0--|--0|---|---|3-2-2-0~~~|--|--|---|
G|---|---|--|-------|---|---|--|----------2|2--|---|---|----------|--|--|---|
E|---|---|--|-------|---|---|--|-----------|---|---|---|----------|--|--|---|
G|---|---|--|-------|---|---|--|-----------|---|---|---|----------|--|--|---|


[REPITE PUENTE]

  

2do ESTRIBILLO:

 (BAJO Y GUITARRA igual que el 1er ESTRIBILLO)

SI7                DO         LA     SI7           DO         LA
Ciertos reyes no viajan en camello, ellos andan al tranco del amor
SI7          DO          LA    SI7          DO RE   MIm + PUENTE
Esos tipos soplan con el viento al rebaño y su temor



[REPITE PUENTE ]



*Eduardo Skay Beilinson (Guitarra)
   MI       SOL       RE       SOL     MI      SOL      RE         MI
E|------|--------|----------|--------|------|--------|----------|-------------|
B|------|--------|----------|--------|------|--------|----------|-------------|
G|-9-9-7|9-7-----|----------|--------|-9-9-7|9-7-----|----------|-------------|
D|------|----9-9-|-5-7-7-5--|5-------|------|----9-9-|-5-7-7-5--|-------------|
A|------|--------|---------7|--7-5---|------|--------|---------7|7~~~~~~~-----|
E|------|--------|----------|------7-|------|--------|----------|-------------|

    MI     SOL      RE         SOL      MI      SOL     RE         MI
G|------|--------|----------|--------|------|--------|----------|-------------|
D|-2-2--|--------|----------|--------|-2-2--|--------|--0-------|----2--------|
A|------|--------|--5--5----|--------|------|--------|-----2----|-------------|
E|------|-3-3--3-|----------|-3-3--3-|------|-3-3--3-|----------|---------0---|



   MI       SOL       RE       SOL     MI      SOL      RE         MI
E|------|--------|----------|--------|------|--------|----------|-------------|
B|------|--------|----------|--------|------|--------|----------|-------------|
G|-9-9-7|9-7-----|----------|--------|-9-9-7|9-7-----|----------|-------------|
D|------|----9-9-|-5-7-7-5--|5-------|------|----9-9-|-5-7-7-5--|-------------|
A|------|--------|---------7|--7-5---|------|--------|---------7|7~~~~~~~-----|
E|------|--------|----------|------7-|------|--------|----------|-------------|

    MI     SOL      RE         SOL      MI      SOL     RE         MI
G|------|--------|----------|--------|------|--------|----------|-------------|
D|-2-2--|--------|----------|--------|-2-2--|--------|--0-------|-----0-2-----|
A|------|--------|--5--5----|--------|------|--------|-----2----|-2-3---------|
E|------|-3-3--3-|----------|-3-3--3-|------|-3-3--3-|----------|-----------0-|



 Toca la Guitarra sola:

   MI       SOL       RE       SOL     MI      SOL      RE         MI
E|------|--------|----------|--------|------|--------|----------|-------------|
B|------|--------|----------|--------|------|--------|----------|-------------|
G|-9-9-7|9-7-----|----------|--------|-9-9-7|9-7-----|----------|-------------|
D|------|----9-9-|-5-7-7-5--|5-------|------|----9-9-|-5-7-7-5--|-------------|
A|------|--------|---------7|--7-5---|------|--------|---------7|7~~~~~~~-----|
E|------|--------|----------|------7-|------|--------|----------|-------------|


           MI       SOL       RE       SOL     MI      SOL      RE         Do
E|------|------|--------|----------|--------|------|--------|----------|-----|
B|------|------|--------|----------|--------|------|--------|----------|-----|
G|------|-9-9-7|9-7-----|----------|--------|-9-9-7|9-7-----|----------|-----|
D|------|------|----9-9-|-5-7-7-5--|5-------|------|----9-9-|-5-7-7-5--|-----|
A|---5-7|------|--------|---------7|--7-5---|------|--------|---------7|(3)~~|
E|5-7---|------|--------|----------|------7-|------|--------|----------|-----|

           MI     SOL      RE         SOL      MI      SOL     RE         Do
G|------|------|--------|----------|--------|------|--------|----------|------|
D|------|-2--2-|--------|----------|--------|-2-2--|--------|--0-------|------|
A|---0-2|------|--------|--5--5----|--------|------|--------|-----2----|-(3)--|
E|0-2---|------|-3-3--3-|----------|-3-3--3-|------|-3-3--3-|----------|------|



FINAL:



*Guitarra
                    MI
e|--------------|----------|
B|--------------|----------|
G|--------------|----------|
D|--5-7-7-5-7-5-|----------|
A|--------------|--7-7-----|
E|--------------|----------|


BAJO:

                    MI
G|--------------|----------|
D|--------------|----------|
A|--------------|----------|
E|--------------|----0-----|

NOTACION:

x: nota muerta o 
b: (bend) o en castellano: estirar cuerda
~~: efecto de vibrato 
/: (slice) o deslizar. 
(): dejar sonar
^: hamer on / Pull of


*ahora que los miro despues de mucho tiempo veo que los riff 
del 3er verso estan mas o menos.. pero tampoco estan tan mal..
el resto esta bien..


[email protected] 
mandenme tabs de los redondos asi los saco a todos..

Fuente original: LaCuerda
Colaborador original: GUILLERMO [[email protected]]

Que te parecio? Calificalo con estrellas!!

Rating: 8.9/10 (217 votos)

Este fichero es trabajo propio de su transcriptor y representa su interpretación personal de la canción. El material contenido en esta página es para exclusivo uso privado, por lo que se prohibe su reproducción o retransmisión, así como su uso para fines comerciales.


Deja tus comentarios:

Letras de Patricio rey y sus redonditos de ricota
Letras de canciones | Musica Independiente