Patricio Rey Y Sus Redonditos De Ricota, El Gordo Tramposo

Imprimir
Esta parte se toca en la intro y en el solo
|----------------|----------------|----------------|----------------|
|----------------|----------------|----------------|----------------|
|------4-----7---|------4-----7---|------------4---|------------4---|
|5---------------|5---------------|2-----5---------|2-----5---------|

|----------------|----------------|----------------|----------------|
|------------4---|------------4---|------6-----9---|----------------|
|2-----5---------|2-----5---------|7---------------|7---------------|
|----------------|----------------|----------------|----------------|

Y esto se toca cuando el Indio canta
|----------------|----------------|----------------|----------------|
|----------------|----------------|----------------|----------------|
|------4-----7---|------4-----7---|------------4---|------------4---|
|5---------------|5---------------|2-----5---------|2-----5---------|

|----------------|----------------|----------------|9-9-7-7-6-6-----|
|------------4---|------------4---|------6-----9---|------------9-9-|
|2-----5---------|2-----5---------|7---------------|----------------|
|----------------|----------------|----------------|----------------|

Fuente original: LaCuerda
Colaborador original: mariano alvarez [[email protected]]
Aviso: Este fichero es trabajo propio de su transcriptor y representa su interpretación personal de la canción. El material contenido en esta página es para exclusivo uso privado, por lo que se prohibe su reproducción o retransmisión, así como su uso para fines comerciales.

Califica esta canción


Comentarios en Facebook