Patricio Rey Y Sus Redonditos De Ricota, El Arbol Del Gran Bonete

Imprimir
Intro
G|----------------------------------|
D|-3----3--3----3--2-0-------3----3-|
A|---3-5-----3-5------3-2-0----3-5--|
E|----------------------------------|

Verso
G|--------------------------|x2
D|--------------------------|
A|----2-2---3-3---2-3-2---3-|
E|-1-1---1-1---1-1-----1-1--|

Coro (Soy un Jocker...)
G|----------------------------------|
D|-3----3--3----3--2-0-------3----3-|
A|---3-5-----3-5------3-2-0----3-5--|
E|----------------------------------|

Verso
G|--------------------------|x2
D|--------------------------|
A|----2-2---3-3---2-3-2---3-|
E|-1-1---1-1---1-1-----1-1--|

Coro (Soy un Jocker...)
G|----------------------------------|
D|-3----3--3----3--2-0-------3----3-|
A|---3-5-----3-5------3-2-0----3-5--|
E|----------------------------------|

Solo de Trompeta
G|---------------|x4
D|---------------|
A|---------------|
E|-(5)-5(6)--(7)-|

Solo de Guitarra
G|------|x4
D|------|
A|------|
E|-1--3-|

Solo de Trompeta
G|---------------|x2
D|---------------|
A|---------------|
E|-(5)-5(6)--(7)-|

Verso **SIN BAJO**

Intro
G|----------------------------------|
D|-3----3--3----3--2-0-------3----3-|
A|---3-5-----3-5------3-2-0----3-5--|
E|----------------------------------|

Verso
G|--------------------------|x2
D|--------------------------|
A|----2-2---3-3---2-3-2---3-|
E|-1-1---1-1---1-1-----1-1--|

Coro (Soy un Jocker...)
G|----------------------------------|
D|-3----3--3----3--2-0-------3----3-|
A|---3-5-----3-5------3-2-0----3-5--|
E|----------------------------------|

Verso  **HASTA EL FINAL**
G|--------------------------|
D|--------------------------|
A|----2-2---3-3---2-3-2---3-|
E|-1-1---1-1---1-1-----1-1--|

Escuchá la canción para saber el ritmo

Fuente original: LaCuerda
Colaborador original: Sebastián Vidondo [[email protected]]
Aviso: Este fichero es trabajo propio de su transcriptor y representa su interpretación personal de la canción. El material contenido en esta página es para exclusivo uso privado, por lo que se prohibe su reproducción o retransmisión, así como su uso para fines comerciales.

Califica esta canción


Comentarios en Facebook