Patricio Rey Y Sus Redonditos De Ricota, Ella Debe Estar Tan Linda

Imprimir
Intro
G|-----------------------------|x4
D|-----------------------------|
A|---4-5---4-5---4-5-7-5-4-5-4-|
E|-0-----0-----0---------------|

Verso **2VECES**
G|-----------------------------|
D|-----------------------------|
A|-----------------------------|
E|-(5)-3-4-(5)-3-4-(5)-3-4-(5)-|

 |-----------------------------|x2
 |-----------------------------|
 |---4-5---4-5---4-5-7-5-4-5-4-|
 |-0-----0-----0---------------|

Coro
G|-------------------4---7-|
D|-----6-----6-----6---6---|
A|-7-4---7-4---7-4---------|
E|-------------------------|

Solo de Guitarra
G|-----------------------------|x4
D|-----------------------------|
A|---4-5---4-5---4-5-7-5-4-5-4-|
E|-0-----0-----0---------------|

Verso **2VECES**
G|-----------------------------|
D|-----------------------------|
A|-----------------------------|
E|-(5)-3-4-(5)-3-4-(5)-3-4-(5)-|

 |-----------------------------|x2
 |-----------------------------|
 |---4-5---4-5---4-5-7-5-4-5-4-|
 |-0-----0-----0---------------|

Coro
G|-------------------4---7-|
D|-----6-----6-----6---6---|
A|-7-4---7-4---7-4---------|
E|-------------------------|

Solo de Guitarra
G|-----------------------------|x4
D|-----------------------------|
A|---4-5---4-5---4-5-7-5-4-5-4-|
E|-0-----0-----0---------------|

Verso **2VECES**
G|-----------------------------|
D|-----------------------------|
A|-----------------------------|
E|-(5)-3-4-(5)-3-4-(5)-3-4-(5)-|

 |-----------------------------|x2
 |-----------------------------|
 |---4-5---4-5---4-5-7-5-4-5-4-|
 |-0-----0-----0---------------|

Coro
G|-------------------4---7-|
D|-----6-----6-----6---6---|
A|-7-4---7-4---7-4---------|
E|-------------------------|

Final
G|-----------------------------|x2 |---|x1
D|-----------------------------|   |---|
A|---4-5---4-5---4-5-7-5-4-5-4-|   |---|
E|-0-----0-----0---------------|   |-0-|

Escuchá la canción para saber el ritmo

Fuente original: LaCuerda
Colaborador original: Sebastián Vidondo [[email protected]]
Aviso: Este fichero es trabajo propio de su transcriptor y representa su interpretación personal de la canción. El material contenido en esta página es para exclusivo uso privado, por lo que se prohibe su reproducción o retransmisión, así como su uso para fines comerciales.

Califica esta canción


Comentarios en Facebook