Patricio Rey Y Sus Redonditos De Ricota, Drogocop

Imprimir
INTRO:
GUITARRA :
                         en la 2 vuelta
E|---------10~----------------|--|------------------------|
B|----------------------------|--|------------------------|
G|---7--7----------7~----(5)~-|X2|-----7-7-(7)----7-7-----|X2
D|---7--7---------------------|--|------------------------|
A|---5--5------5-------5------|--|---5----------5---------|
E|----------------------------|--|------------------------|
   
BAJO:
G|--------------------|--|--------------------|
D|--------------------|--|--------------------|
A|------5-5------(3)--|X3|----(5)--5-5-5-5-5--|X2
E|--5-5------3-3------|--|--5-----------------|


VERSO 1:
                             Fill 1
su chumbo ya venia con la bronca
                           Fill 2
factor argento desaparecedor


GUITARRA:
  Fill 1          Fill 2
E|--1-------|  |-1-1----------|
B|----------|  |--------------|
G|-----3-2~-|  |-----3-2------|
D|----------|  |---------(0)--|
A|----------|  |--------------|
E|----------|  |--------------|
             
ESTRIBILLO 1:

BAJO:
G|--------------------|--|--------------------|
D|--------------------|--|--------------------|
A|------5-5------(3)--|X3|----(5)--5-5-5-5-5--|X1
E|--5-5------3-3------|--|--5-----------------|

GUITARRA :
   Drogoco-op
E|-----------------------|---------------|-------------------|
B|--6-------6------------|----------(6)~-|-------------------|
G|------------7p5---(7)~-|--7-7p5--------|-7-7-7-------------|
D|----------------7------|--------7------|-------7-5---------|
A|-----------------------|---------------|-----------8-(5)---|
E|-----------------------|---------------|-------------------|
             

 VERSO 2:
GUITARRA:
  Fill 3          Fill 4
E|----------|  |--------------|
B|----------|  |--------------|
G|-0-2------|  |--------------|
D|------3---|  |--------------|
A|----------|  |---5/---------|
E|----------|  |--------------|

                                Fill 3
Juicio fantasma de los muertos querido
                             Fill 4
y una muy larga botella de gin


INTERMEDIO:

GUITARRA 1:
        Riff A             RIFF b             RIFF a                LA         RE
E|-------------------|-------------------|------------------|5-5-5-5-5-5-5-|-10/-------|
B|-6-6-----6/9-------|-6-6-----6/(9)~----|-6-6-----6/9------|5-5-5-5-5-5-5-|-10/-------|
G|-----7-5-----(7)~--|-----7-5--------7--|-----7-5-----(7)~-|--------------|-----------|
D|-------------------|-------------------|------------------|--------------|-----------|
A|-------------------|-------------------|------------------|--------------|-----------|
E|-------------------|-------------------|------------------|--------------|-----------|
             
GUITARRA 2:
        SOl   SIB            LA               RE
E|--------------------|--|-----------------|--------|
B|--------------------|--|-----------------|--------|
G|--------------------|X3|-----------------|--(7)---|
D|--5-5-5-5-/-8-8-(8)-|--|-7-7-7-7-7-7-7-7-|--(7)---|
A|--5-5-5-5-/-8-8-(8)-|--|-7-7-7-7-7-7-7-7-|--(5)---|
E|--3-3-3-3-/-6-6-(6)-|--|-5-5-5-5-5-5-5-5-|--------|
  Pm......           

BAJO
G|--------------------|--|-----------------|--------|
D|--------------------|X3|-----------------|--------|
A|--------------------|--|-----------------|--(5)---|
E|--3-3-3-3-/-6-6-(6)-|--|-5-5-5-5-5-5-5-5-|--------|



***PARTE CON EFECTOS de guitarra***  sobre [RE]


PUENTE: 

BAJO:
G|------------------|--||
D|------------------|X4||
A|------------------|--||
E|-5-5-5-5-5-0-3----|--||

GUITARRA:
E|-------------------------------------------------------------------------------------|
B|-------------------------------------------------------------------------------------|
G|-------------------------------------------------------------------------------------|
D|-------------------------------------------------------------------------------------|
A|-------------------------------------------------------------------------------------|
E|-------------------------------------------------------------------------------------|

ESTRIBILLO 2:

E|------------------------|----------|
B|---5b----5b----5b---5b--|----------|
G|------------------------|----------|
D|------------------------|-5-3------|
A|------------------------|-----(5)~-|
E|------------------------|----------|
             
BAJO:
G|--------------------|--|--------------------|
D|--------------------|--|--------------------|
A|------5-5------(3)--|X3|----(5)--5-5-5-5-5--|X1
E|--5-5------3-3------|--|--5-----------------|


"DROGOCOP OH ...... X3


VERSO 3:

GUITARRA:
  Fill 5        Fill 2
E|----------|  |-1-1----------|
B|----------|  |--------------|
G|--0--3----|  |-----3-2------|
D|----------|  |---------(0)--|
A|----------|  |--------------|
E|----------|  |--------------|


**ESTRIBILLO 3: (igual al estribillo 1)**


INTERMEDIO 2:

GUITARRA 1:
    mi         Sib              MI      SIb  
E|--------|------------------|------|----------------|--------|--------|--------|-/-(8)----|
B|--------|-9---9---9---9----|------|-9---9---9---9/-|--------|--------|--------|-/-(8)----|
G|--(9)---|---7---7---7---7--|-(9)--|---7---7---7----|-RIFF A-|-RIFF B-|-RIFF A-|----------|
D|--(9)---|------------------|-(9)--|----------------|--------|--------|--------|----------|
A|--(7)---|------------------|-(7)--|----------------|--------|--------|--------|----------|
E|--(0)---|------------------|-(0)--|----------------|--------|--------|--------|----------|
             
BAJO: MI       Sib
G|----------|-----------|--|--------------------|--|-------------------------|
D|----------|-----------|X2|--------------------|X3|-------------------------|
A|777777777-|-----------|--|--------------------|--|-------------------------|
E|----------|-666666666-|--|--3-3-3-3-/-6-6-(6)-|--|-5-5-5-5-5-5-5-5-5-5-5---|

FINAL:

BAJO:
G|-----------------------|--------------------------|
D|-----------------------|--------------------------|
A|-----------------------|--------------------------|X
E|-/-5-5-5-5-5-5-5-5-5-5-|--0-3-4-5-5-5-5-5-5-5-5-5-|

GUITARRA:               LA
E|---------------|    |---------------| 
B|---------------|    |---------------| 
G|-2-1-0---------|X13 |-(2)-----------| 
D|--------4-3-2--|    |-(2)-----------| 
A|---------------|    |-(0)-----------| 
E|---------------|    |---------------|

Fuente original: LaCuerda
Colaborador original: Guille [[email protected]]
Aviso: Este fichero es trabajo propio de su transcriptor y representa su interpretación personal de la canción. El material contenido en esta página es para exclusivo uso privado, por lo que se prohibe su reproducción o retransmisión, así como su uso para fines comerciales.

Califica esta canción


Comentarios en Facebook