Patricio Rey Y Sus Redonditos De Ricota, Doctor Saturno

Imprimir
Intro
G|------------------|x4
D|------------------|
A|-5-88-5-88-5-88-5-|
E|------------------|

Verso
G|-----------------------------|x2
D|--3-4-5--3-4-5--3-4-5--3-4-5-|
A|-5------5------5------5------|
E|-----------------------------|

Puente
G|------------------|
D|------------------|
A|-5-88-5-88-5-88-5-|
E|------------------|

Coro
G|------------------|
D|------------------|
A|-5-88-5-88-5-88-5-|
E|------------------|

Verso
G|-----------------------------|x2
D|--3-4-5--3-4-5--3-4-5--3-4-5-|
A|-5------5------5------5------|
E|-----------------------------|

Puente
G|------------------|
D|------------------|
A|-5-88-5-88-5-88-5-|
E|------------------|

Coro
G|------------------|
D|------------------|
A|-5-88-5-88-5-88-5-|
E|------------------|

Verso
G|-----------------------------|x1
D|--3-4-5--3-4-5--3-4-5--3-4-5-|
A|-5------5------5------5------|
E|-----------------------------|

Verso 2 (Vinos gruesos...)
G|-------------|--------|
D|-------------|--------|
A|-3--1--3-2-1-|--------|
E|-------------|-3--1-2-|
 | DOS   Veces | 2veces |

Solo *Slap*  (c/efectos)
G|--9--7--------|x4
D|--------7-6-5-|
A|-7--7--7-7-7--|
E|--------------|

Puente
G|------------------|x2
D|------------------|
A|-5-88-5-88-5-88-5-|
E|------------------|

Verso
G|-----------------------------|x2
D|--3-4-5--3-4-5--3-4-5--3-4-5-|
A|-5------5------5------5------|
E|-----------------------------|

Puente
G|------------------|
D|------------------|
A|-5-88-5-88-5-88-5-|
E|------------------|

Coro
G|------------------|
D|------------------|
A|-5-88-5-88-5-88-5-|
E|------------------|

Verso
G|-----------------------------|x2
D|--3-4-5--3-4-5--3-4-5--3-4-5-|
A|-5------5------5------5------|
E|-----------------------------|

Puente
G|------------------|
D|------------------|
A|-5-88-5-88-5-88-5-|
E|------------------|

Coro
G|------------------|
D|------------------|
A|-5-88-5-88-5-88-5-|
E|------------------|

Puente
G|------------------|x3
D|------------------|
A|-5-88-5-88-5-88-5-|
E|------------------|

Escuchá la canción para saber el ritmo

Fuente original: LaCuerda
Colaborador original: Sebastián Vidondo [[email protected]]
Aviso: Este fichero es trabajo propio de su transcriptor y representa su interpretación personal de la canción. El material contenido en esta página es para exclusivo uso privado, por lo que se prohibe su reproducción o retransmisión, así como su uso para fines comerciales.

Califica esta canción


Comentarios en Facebook