Patricio Rey Y Sus Redonditos De Ricota, De Esos Polvos Futuros Lodos

Imprimir
Intro:

e|--------------------------|-------------------------------------------------|
B|--(5)---(3)-----(5)---(3)-|--5-5h7h8-10-12-10-8-7----5-5h7h8-10-12-10-8-7---|
G|--------------------------|-------------------------------------------------|
D|--------------------------|-------------------------------------------------|
A|--------------------------|-------------------------------------------------|
E|--------------------------|-------------------------------------------------|

e|--------------------------|---------------------------------------|
B|--(3)---(5)-----(3)---(5)-|--12bp10-8-12b-10---12bp10-8-12b-------|
G|--------------------------|---------------------------------------|
D|--------------------------|---------------------------------------|
A|--------------------------|---------------------------------------|
E|--------------------------|---------------------------------------|

e|--------------------------|-------------------------------------------------|
B|--(5)---(3)-----(5)---(3)-|--5-5h7h8-10-12-10-8-7----5-5h7h8-10-12-10-8-7---|
G|--------------------------|-------------------------------------------------|
D|--------------------------|-------------------------------------------------|
A|--------------------------|-------------------------------------------------|
E|--------------------------|-------------------------------------------------|

e|--------------------------|---------------------------------------|
B|--(3)---(5)-----(3)---(5)-|--12bp10-8-12b-10---12bp10-8-12b-------|
G|--------------------------|---------------------------------------|
D|--------------------------|---------------------------------------|
A|--------------------------|---------------------------------------|
E|--------------------------|---------------------------------------|


e|---------------------------------------------------|
B|--(10)--(8)--(7)--(5)--(10)--(8)--(7)--(5)--(5v)---|
G|---------------------------------------------------|
D|---------------------------------------------------|
A|---------------------------------------------------|
E|---------------------------------------------------|

e|--------------------------------------------(7)----|
B|--(10)--(8)--(7)--(5)--(10)--(8)--(7)--(5)---------|
G|---------------------------------------------------|
D|---------------------------------------------------|
A|---------------------------------------------------|
E|---------------------------------------------------|

Verso: (x2)
e|-----------|------|
B|-----------|------|
G|--7p5p0----|--x8--|
D|-----------|------|
A|-----------|------|
E|-----------|------|
El Perro...
Canta Como un leon pero es el mas salmon de la cuidad
e|---------|------------------------------|
B|---------|-----------------------8-8----|
G|---------|----5----7-7------5-----------|
D|-7-7-7-7-|--5---5---------5---5---------|
A|-7-7-7-7-|------------------------------|
E|-5-5-5-5-|------------------------------|
....Bailen lo que labilen los demas...
e|-----------|------|
B|-----------|------|
G|--7p5p0----|--x8--|
D|-----------|------|
A|-----------|------|
E|-----------|------|
Todo despues...
Magico hiperterror

e|---------|------------------------------|
B|---------|-----------------------8-8----|
G|---------|----5----7-7------5-----------|
D|-7-7-7-7-|--5---5---------5---5---------|
A|-7-7-7-7-|------------------------------|
E|-5-5-5-5-|------------------------------|
....Cagen lo que cagen los demas...

Puente:
e|-------------------------------(7)--5------------------------------|----|
B|--------5--(8)--7v----------5-------------------8--(10)---8p7p(5)--|----|
G|--5--7----------------5--7----------------7--9---------------------|-x2-|
D|-------------------------------------------------------------------|----|
A|-------------------------------------------------------------------|----|
E|-------------------------------------------------------------------|----|



e|------------------------------------------------------------|
B|--(10)--(8)--(7)--(5)--(10)--(8)--(7)--(5)--(5v)---5p3p0-3-0|
G|------------------------------------------------------------|
D|------------------------------------------------------------|
A|------------------------------------------------------------|
E|------------------------------------------------------------|

e|--------------------------------------------(7)----|
B|--(10)--(8)--(7)--(5)--(10)--(8)--(7)--(5)---------|
G|---------------------------------------------------|
D|---------------------------------------------------|
A|---------------------------------------------------|
E|---------------------------------------------------|


Verso:
e|-----------|------|
B|-----------|------|
G|--7p5p0----|--x8--|
D|-----------|------|
A|-----------|------|
E|-----------|------|
Una papel por..
El perro cruzo los pies...

e|---------|------------------------------|----|
B|---------|-----------------------8-8----|----|
G|---------|----5----7-7------5-----------|-x2-|
D|-7-7-7-7-|--5---5---------5---5---------|----|
A|-7-7-7-7-|------------------------------|----|
E|-5-5-5-5-|------------------------------|----|
...Ladren lo que ladren los demas...


e|--------------------------|-------------------------------------------------|
B|--(5)---(3)-----(5)---(3)-|--5h7h8-10-12-10-8-7----5-5h7h8-10-12-10-8-7-----|
G|--------------------------|-------------------------------------------------|
D|--------------------------|-------------------------------------------------|
A|--------------------------|-------------------------------------------------|
E|--------------------------|-------------------------------------------------|

e|--------------------------|---------------------------------------|
B|--(3)---(5)-----(3)---(5)-|--12bp10-8-12b-10---12bp10-8-12b-------|
G|--------------------------|---------------------------------------|
D|--------------------------|---------------------------------------|
A|--------------------------|---------------------------------------|
E|--------------------------|---------------------------------------|

e|--------------------------|-------------------------------------------------|
B|--(5)---(3)-----(5)---(3)-|--5h7h8-10-12-10-8-7----5-5h7h8-10-12-10-8-7-----|
G|--------------------------|-------------------------------------------------|
D|--------------------------|-------------------------------------------------|
A|--------------------------|-------------------------------------------------|
E|--------------------------|-------------------------------------------------|

e|--------------------------|---------------------------------------|
B|--(3)---(5)-----(3)---(5)-|--12bp10-8-12b-10---12bp10-8-12b-------|
G|--------------------------|---------------------------------------|
D|--------------------------|---------------------------------------|
A|--------------------------|---------------------------------------|
E|--------------------------|---------------------------------------|


e|------------------------------------------------------------|
B|--(10)--(8)--(7)--(5)--(10)--(8)--(7)--(5)--(5v)---5p3p0-3-0|
G|------------------------------------------------------------|
D|------------------------------------------------------------|
A|------------------------------------------------------------|
E|------------------------------------------------------------|

e|--------------------------------------------(7v)---|
B|--(10)--(8)--(7)--(5)--(10)--(8)--(7)--(5)---------|
G|---------------------------------------------------|
D|---------------------------------------------------|
A|---------------------------------------------------|
E|---------------------------------------------------|



Verso:
e|-----------|------|
B|-----------|------|
G|--7p5p0----|--x8--|
D|-----------|------|
A|-----------|------|
E|-----------|------|
El Perro..
Canta como un leon..

e|---------|------------------------------|----|
B|---------|-----------------------8-8----|----|
G|---------|----5----7-7------5-----------|-x2-|
D|-7-7-7-7-|--5---5---------5---5---------|----|
A|-7-7-7-7-|------------------------------|----|
E|-5-5-5-5-|------------------------------|----|
....Cagen lo que cagen los demas...

Y la cancion a mi se me termina ahi... asi que mas no puedo sacar...

Fuente original: LaCuerda
Colaborador original: Pablito Gabriel [[email protected]]
Aviso: Este fichero es trabajo propio de su transcriptor y representa su interpretación personal de la canción. El material contenido en esta página es para exclusivo uso privado, por lo que se prohibe su reproducción o retransmisión, así como su uso para fines comerciales.

Califica esta canción


Comentarios en Facebook