Patricio Rey Y Sus Redonditos De Ricota, Criminal Mambo

Imprimir
Intro/verso x3
|----------------|----------------|----------------|----------------|
|----------------|----------------|----------------|----------------|
|----5---4---3-2-|----5---4---3-2-|----5---4---3-2-|----5---4---3-2-|
|0-0---0---0-----|0-0---0---0-----|0-0---0---0-----|0-0---0---0-----|

|----------------|----------------|----------------|----------------|
|----------------|----------------|----------------|----------------|
|----------------|----------------|----------------|----------------|
|1-1-1-1-1-1-1-1-|1-1-1-1-1-1-1-1-|1-1-1-1-1-1-1-1-|1-1-1-1-1-1-1-1-|

Pre Estribillo x1
|----------------|----------------|----------------|----------------|
|----------------|----------------|----------------|----------------|
|----5---4---3-2-|----5---4---3-2-|----5---4---3-2-|----5---4---3-2-|
|0-0---0---0-----|0-0---0---0-----|0-0---0---0-----|0-0---0---0-----|

Estribillo x1
|----------------|----------------|----------------|----------------|
|----------------|----------------|----------------|----------------|
|----------------|----------------|----------------|----------------|
|1-1-1-1-1---7---|1-1-1-1-1---7---|1-1-1-1-1---7---|1-1-1-1-1---7---|

|----------------|----------------|----------------|----------------|
|----------------|----------------|----------------|----------------|
|------------9---|------------9---|------------9---|----9-------9---|
|8-8-8-8-8-------|8-8-8-8-8-------|8-8-8-8-8-------|8-------8-------|

Solo: repetir este riff las veces necesarias
|----------------|
|----------------|
|----5---4---3-2-|
|0-0---0---0-----|

Estribillo y final
|----------------|----------------|----------------|----------------|
|----------------|----------------|----------------|----------------|
|----------------|----------------|----------------|----------------|
|1-1-1-1-1---7---|1-1-1-1-1---7---|1-1-1-1-1---7---|1-1-1-1-1---7---|
 
|----------------|----------------|----------------|----------------|
|----------------|----------------|----------------|----------------|
|------------9---|------------9---|------------9---|----9-------9---|
|8-8-8-8-8-------|8-8-8-8-8-------|8-8-8-8-8-------|8-------8-------|

|----------------|----------------|----------------|----------------|
|----------------|----------------|----------------|----------------|
|----9-------9---|----9-------9---|----9-----------|----------------|
|8-------8-------|8-------8-------|8-------8-------|--------0-------|

Fuente original: LaCuerda
Colaborador original: mariano alvarez [[email protected]]
Aviso: Este fichero es trabajo propio de su transcriptor y representa su interpretación personal de la canción. El material contenido en esta página es para exclusivo uso privado, por lo que se prohibe su reproducción o retransmisión, así como su uso para fines comerciales.

Califica esta canción


Comentarios en Facebook