Patricio Rey Y Sus Redonditos De Ricota, Capitan Buscapina

Imprimir
Intro x5
|----------------|----------------|
|----------------|----------------|
|4-------4-----2-|4-------4--5--5-|
|----4-------4---|----4-----4--4--|

Pre-verso x1
|----------------|----------------|
|----------------|----------------|
|4-------4-----2-|4-------4--5--5-|
|----4-------4---|----4-----4--4--|

Verso x1
|----------------|----------------|----------------|----------------|
|----------------|----------------|----------------|----------------|
|4-------4-----2-|4-------4--5--5-|4-------4-----2-|4-------4--4-45-|
|----4-------4---|----4-----4--4--|----4-------4---|----4-----------|
 
|----------------|----------------|----------------|----------------|
|----------------|----------------|----------------|----------------|
|7-------7-----5-|7-------7--8--8-|7-------7-----5-|7-------7--7-75-|
|----7-------7---|----7-----7--7--|----7-------7---|----7-----7-----|

Puente A  x1
|----------------|----------------|----------------|----------------|
|----------------|----------------|----------------|----------------|
|4-------4-----2-|4-------4--5--5-|4-------4-----2-|4-------4-----4-|
|----4-------4---|----4-----4--4--|----4-------4---|----4------4----|

|----------------|----------------|----------------|----------------|
|----------------|----------------|----------------|----------------|
|----------------|----------------|4-------4-----2-|4-------4--5--5-|
|3--3--3-0-------|3--3--3-0-------|----4-------4---|----4-----4--4--|

Pre-verso x1
Verso x2
Puente B x1
|----------------|----------------|----------------|----------------|
|----------------|----------------|----------------|----------------|
|4-------4-----2-|4-------4--5--5-|4-------4-----2-|4-------4-----4-|
|----4-------4---|----4-----4--4--|----4-------4---|----4------4----|

|----------------|----------------|----------------|----------------|
|----------------|----------------|----------------|----------------|
|----------------|----------------|4-------4-----2-|4-------4-------|
|3--3--3-0-------|3--3--3-0-------|----4-------4---|----4-----------|

Estribillo x1
|----------------|----------------|----------------|----------------|
|----------------|----------------|----------------|----------------|
|----------------|----------------|----------------|----------------|
|0-0-0--0-0-0-0--|2-2-2--2-2-2-2--|5-5-5--5-5-5-5--|5-5-5--5--/17--|

Pre-verso x2
Verso x1
Puente B x1
Estribillo x1
Tocar la intro hasta el final de la canción

Fuente original: LaCuerda
Colaborador original: mariano alvarez [[email protected]]
Aviso: Este fichero es trabajo propio de su transcriptor y representa su interpretación personal de la canción. El material contenido en esta página es para exclusivo uso privado, por lo que se prohibe su reproducción o retransmisión, así como su uso para fines comerciales.

Califica esta canción


Comentarios en Facebook