Patricio Rey Y Sus Redonditos De Ricota, Cancion Para Naufragios.

Imprimir
Intro:
GUITARRA 1:
   ______PARTE 1 (tocar esto 2 veces)_________     _________________PARTE 2____________________
  |                                           |   |       FAm       Sib   *        Sib (punteo)|
E|8-8-6-6--------|--|------------|---|--44(4)-|| |--1-1--1--1-1--1|-----|444|---|---------------|
B|--------9-9-6-6|--|--------(6~)|---|--44(4)-|| |--1-1--1--1-1--1|-----|444|---|---------------|
G|---------------|X2|-6-6--8-----|---|--------|| |----------------|-33-3|---|FAm|-33--3---------|
D|---------------|--|------------|-ƒ-|--------|| |----------------|----3|---|---|-----3---------|
A|---------------|--|------------|---|--------|| |----------------|1--1-|---|---|1--1--1-3-4-3-1|
E|---------------|--|------------|---|--------|| |1----1--------1-|-----|---|---|---------------|

GUITARRA2: el FAm es como lo hace guitarra 1 en PARTE 2
  PARTE 1                       *                      PARTE 2         *
E|--------------|-------|--|---44(4)-||          |-------|-------|---44(4)-|----|--------|
B|--------------|-------|--|---44(4)-||          |-------|-------|---44(4)-|----|--------|
G|----fam-------|---SIb-|--|---44(4)-||x2        |--Fam--|--Sib--|---44(4)-|----|--------|
D|--------------|-------|--|---------||          |-------|-------|---------|FAm-|-SIb----| 
A|--------------|-------|--|---------||          |-------|-------|---------|----|--------|
E|--------------|-------|--|---------||          |-------|-------|---------|----|--------|

BAJO: PARTE 1
   FAm                   Sib         *
G|----------------|--|-------|----|------|----------------|--|-------|----|------|
D|----------------|--|---

Fuente original: LaCuerda
Colaborador original: Guille [[email protected]]
Aviso: Este fichero es trabajo propio de su transcriptor y representa su interpretación personal de la canción. El material contenido en esta página es para exclusivo uso privado, por lo que se prohibe su reproducción o retransmisión, así como su uso para fines comerciales.

Califica esta canción


Comentarios en Facebook