Patricio Rey Y Sus Redonditos De Ricota, Buenas Noticias

Imprimir
intro


guitarra      RE5                       DO5
e|----------------------------------|---------------------------------|--|
B|----------------------------------|---------------------------------|--|
G|----------7-7-------------7-7-----|---------5-5-------------5-5-----|x2|
D|------7-7-----(7)-----7-7-----(7)-|-----5-5----(5)------5-5-----(5)-|--|
A|--5-5--------------5-5------------|-3-3-------------3-3-------------|--|
E|----------------------------------|---------------------------------|--|

BAJO  (en esta vuelta el bajo no toca nada)

sigue asi...

guitarra      RE5                       DO5
e|----------------------------------|---------------------------------|--|
B|----------------------------------|---------------------------------|--|
G|----------7-7-------------7-7-----|---------5-5-------------5-5-----|x2|
D|------7-7-----(7)-----7-7-----(7)-|-----5-5----(5)------5-5-----(5)-|--|
A|--5-5--------------5-5------------|-3-3-------------3-3-------------|--|
E|----------------------------------|---------------------------------|--|

BAJO:

G|----------------------------------|---------------------------------|--|
D|----------------------------------|---------------------------------|x2|
A|--5----------3---5-------------1--|-3----------1---3-------------3--|--|
E|----------------------------------|---------------------------------|--|


VERSO 1:

RE5(como en la intro)
Esa banda inconsolable de perros sin folleto
DO5(como en la intro)
brujas de alma sencilla, patéticos viajantes.
RE5
Pobres tontos, pobres diablos, lunáticos diamantes 
DO5
prometidos de carne, lánguidos impalpábles


guitarra:                                                                    _
                   RE5                       DO5                              |
e|----------------------------------|--|---------------------------------|--| |
B|----------------------------------|--|---------------------------------|--| | esto a su vez
G|----------7-7-------------7-7-----|X2|---------5-5-------------5-5-----|x2| |   se toca 
D|------7-7-----(7)-----7-7-----(7)-|--|-----5-5----(5)------5-5-----(5)-|--| |   X 2
A|--5-5--------------5-5------------|--|-3-3-------------3-3-------------|--| |
E|----------------------------------|--|---------------------------------|--| |
                                                                             _|
BAJO:

G|----------------------------------|--|---------------------------------|--|  |
D|-----

Fuente original: LaCuerda
Colaborador original: GUILLE [[email protected]]
Aviso: Este fichero es trabajo propio de su transcriptor y representa su interpretación personal de la canción. El material contenido en esta página es para exclusivo uso privado, por lo que se prohibe su reproducción o retransmisión, así como su uso para fines comerciales.

Califica esta canción


Comentarios en Facebook