Patricio Rey Y Sus Redonditos De Ricota, Buenas Noticias

Imprimir
Versos:
G|----------------------|
D|------7---------5-----|
A|-5--5----5-3--3---3---|
E|----------------------|

 Final Verso:
  
  son... ...mis amantes...
G|------|----------------------------|
D|------|----------------------------|
A|-(1)--|---(5)----(1)----(5)--(1)---|
E|------|----------------------------|

 Solo de Guitarra:
G|--------------------|
D|--------------------|
A|-5-----5----5----5--|
E|--------------------|

Escuchá la canción para saber el ritmo

Fuente original: LaCuerda
Colaborador original: Sebastián Vidondo [[email protected]]
Aviso: Este fichero es trabajo propio de su transcriptor y representa su interpretación personal de la canción. El material contenido en esta página es para exclusivo uso privado, por lo que se prohibe su reproducción o retransmisión, así como su uso para fines comerciales.

Califica esta canción


Comentarios en Facebook