Patricio Rey Y Sus Redonditos De Ricota, Aquella Solitaria Vaca Cubana

AQUELLA SOLITARIA VACA CUBANA - PATRICIO REY Y SUS REDONDITOS DE RICOTA

En la Intro/Puente aceleren bien los golpes para que suene bien.
Si tienen algún tipo de ecualización para escuchar mejor el bajo úsenla:
yo usé un minicomponente. ¡Suerte!

Intro
G|----
D|----
A|----
E|-7-

G|--------------------------------------
D|----9-9-7-6-7---9~----9-9-7-6-7-------
A|--------------------------------5h6h7-	x4
E|-7------------7-----7-----------------

Verso 1
G|----------------
D|----------------
A|--------2---4-2-	x3
E|-0--3-4---4-----

G|-------------
D|-------------
A|-/7--4--5--4-
E|-------------

Puente
G|--------------------------------------
D|----9-9-7-6-7---9~----9-9-7-6-7-------
A|--------------------------------5h6h7-	x2
E|-7------------7-----7-----------------


** Verso 2: igual a Verso 1 **


** Puente **


Coro
G|---------------
D|------2-4--2---
A|----4--------4-	x2
E|-2-------------

	...solitaaaria vaca cubana...
G|-----------------------------
D|-----------------------------
A|-/7--5--4--2-----------------
E|--------------0~~---------7-	>>>>> Hagan el slide justo en la C


** Puente **


** Verso 3: igual a Verso 1 **


Verso 4
G|----------------
D|----------------
A|--------2---4-2-	x3
E|-0--3-4---4-----

G|-------------
D|-------------
A|-/7----------
E|-----4--5--6-


** Coro **


** Puente **


** Solo de Saxo: Verso 1 - Puente - Verso 4 - Puente - Coro - Puente **


** Verso 5: igual a Verso 1 **


** Puente **


** Verso 6: igual a Verso 1 **


** Puente **


** Coro: retrasen el final y terminen con muchos B **


Bueno gente espero que les guste esta excelente canción ricotera.
Les aseguro que van a estar días antes de poder darle la velocidad necesaria.
¡Mucha suerte! ¡Aguante los Redondos y la Renga!

Fuente original: LaCuerda
Colaborador original: Hernán Martínez [[email protected]]
Aviso: Este fichero es trabajo propio de su transcriptor y representa su interpretación personal de la canción. El material contenido en esta página es para exclusivo uso privado, por lo que se prohibe su reproducción o retransmisión, así como su uso para fines comerciales.

Califica esta canción


Comentarios en Facebook