Enviado por: Anonimo
Agrandar Letra
Reducir Letra
Imprimir

Acordes:
½ tono
| +0 |
½ tono
||
Volver

Otras Versiones de Reina Momo:




Patricio Rey Y Sus Redonditos De Ricota, Reina Momo

 REINA MOMO [inedito]

 [tema grabado en ensayo por un amigo que le hacia luces, 
Si  no lo tienen manden un mail a [email protected]]
AGUANTE GELP


Sol#                             Do#
  Ella empeso sonriendo, era un bar sin luz , ah ah ah
Sol#                             Do#
y dice que lo hizo hasta con el diablo.
Sol#                             Do#
   Es linda desde la cabeza hasta los pies,  ah ah ah
Sol#                             Do#
 y con su carcajada ronca me tento.

                                      Re#
  La reina momo todo el tiempo anda a la pesca
Do#                          Re                                    Sol#
del vino que nos va a poner un poco tonto, dime mas.

                                         Do#
  Es tan goloza que no hay tiempo que perder,  ah ah ah
Sol#                             Do#
y tan bonita que siempre tendra problemas.
Sol#                             Do#
  Su gata filo, no se estira y ronronea
Sol#                             Do#
y le seguimos la corriente aha aha.

                       Re#
  Amiga de su sexi-caramelo,
Do#                     Re                               Sol#
y ternuras que no son para este mundo, aha ahá

SOLO DE GUITARRA:   [ a ] arrastre

E]------------------------------------------------------------------------------------11--11-]
B]-5--7---5--------------5--7--5-----9------5--7--5-------------5--------8--4a11---------]
G]------------8--5-----------------8-------------------8--5----------6----------------------]
D]-------------------6----------------------------------------6----------8-------------------]
A]--------------------------------------------------------------------------------------------]
E]--------------------------------------------------------------------------------------------]

2ºparte la misma base

   El aire se hizo todo azúcar con su voz, ah ah ah
y no me pude resistir sin respirar
  Me fabrico mi ?????????? con ventanas
y que mas puedo pedir.  ah ha ah ha

  Hay gotas de mi sangre en su trago,
me lastime los labios, al irme sin ella.


  Quizas ya sea un poco tarde para mi, ah ah ah
y para mi ultima aventura sobre un blues.
   Yo me he agacha´o, no tengo mas remedio,
mi brujula temblo, ah ha, ah ha

     La reina momo todavia anda a la pesca,
del vino que  va a poner un poco tonto ah ha, ah há


SOLO GUITARRA Y FINAL:

E]-----------------------------------4--]
B]-5--7---5--------------5--7--5---4--]
G]------------8--5------------------5--]
D]-------------------6---------------6--]
A]-----------------------------------6--]
E]-----------------------------------4--] 

Fuente original: LaCuerda
Colaborador original: Federico Genoves [[email protected]]
Aviso: Este fichero es trabajo propio de su transcriptor y representa su interpretación personal de la canción. El material contenido en esta página es para exclusivo uso privado, por lo que se prohibe su reproducción o retransmisión, así como su uso para fines comerciales.

Califica esta canción


Comentarios en Facebook