Enviado por: Anonimo
Agrandar Letra
Reducir Letra
Imprimir

Acordes:
½ tono
| +0 |
½ tono
||
Volver

Otras Versiones de Caras en el parque:

Pappo, Caras en el parque

 Intro: <Bbm>x4

Eb5
       No hace mucho tiempo hoy,
Ab5 Bb5
       no quiero encontrar,
Bb5-Ab5
       los cielos maravilla,
<Bbm>
 caras en el parque.

Eb5
       Ahora que muy solo estoy,
Ab5 Bb5
       empiezo a sonreír,
Bb5 Ab5
       y elevo mis palabras,
<Bbm>
 hacia las estrellas.
<Bbm>

Ab5
          Empiezo a recordar,
Gb5-G5-Ab5
          que justamente hoy,
Gb5-G5-Ab5
          hoy quiero encontrar,
Ab5-A5-Bb5
          alguien a quien amar.

Eb5
       Ahora que muy solo estoy,
Ab5-Bb5
       empiezo a sonreír,
Bb5-Ab5
       y elevo mis palabras,
<Bbm>
 hacia las estrellas.
<Bbm>

Solo: <F5 Ab5 F5>x4
      [Bb5 Ab5 Gb5 Bb5]x6
       Bb5 Ab5 Gb5 F5
      [Eb5-Db5-Bb5-A5-Ab5-Gb5]x4

Eb5
       No hace mucho tiempo hoy,
Ab5 Bb5
       no quiero encontrar,
Bb5-Ab5
       los cielos maravilla,
<Ebm>
 caras en el parque.
<Ebm>x3


   <Bb>               <F5    Ab5 F                         >    
*----------------*  *-------4------------------------------**
*------/6-5-4----*  *-------4------------------------------**
*--3-6--------6--*  *--------------------------------------**
*----------------*  *-3-3-------3-3-3--3-3-3--3-3-3—3^1----**
*----------------*  *-3-3-------------------------------3--**
*----------------*  *-1-1----------------------------------**

 <Eb>
*---------------**
*---------------**
*---------------**
*------8-7-6----**
*--6-9-------9--**
*---------------** 

Fuente original: LaCuerda
Colaborador original: Sebastián Griz [[email protected]]
Aviso: Este fichero es trabajo propio de su transcriptor y representa su interpretación personal de la canción. El material contenido en esta página es para exclusivo uso privado, por lo que se prohibe su reproducción o retransmisión, así como su uso para fines comerciales.

Califica esta canción


Comentarios en Facebook