Acordes y tablaturas para guitarra

Acordes y Tablaturas
Usuario: Password:

Buscar:
Acordes y Tablaturas >> Letra L >> Acordes de Los nocheros >> No saber de ti
Tablatura de No saber de ti, Los nocheros

No saber de ti

Los nocheros






Intro de piano(arreglado para guitarra)

e-------------------------------3-------------3--------
b--------3----------3----3----3---3--5------5----------
g--4---4------5---5--------4--------------5------------
D----5------5---5-----5-----------------5--------------
A------------------------------------------------------
E------------------------------------------------------


e-----------3-------------2--------2-------------------
b---------5-------------3--------1---------------------
g-0-2-4-5-----2--0----2--------2-----------------------
D-------------------0--------0-------------------------
A------------------------------------------------------
E------------------------------------------------------

Al lado de cada Acorde esta indicado las veces que se debe
tocar el mismo

SOLx2              DOx2                  REx4    Frase1
 Nadie me habla de ti   sin embargo te extraño
SOLx2                DOx2                    REx4  Frase2
 no me resigno a olvidarte  aunque pasen los años
DOx2         REx2   simx2           mimx2 
 que sera de ti       por donde andaras
DOx2                  REx2               SOLx2   DOx1 REx1
 a que distancia te encuentras de mi soledad

Con la misma estructura de la primera estrofa

 Como quisiera saber si es que aun me recuerdas
 si has preguntado por mi si te duele mi ausencia
 que ha cambiado en ti  y  en tu corazon
 como ha seguido tu vida despues de mi amor

estribillo

           SOLx4 
 Desde que no estas aqui ya no puedo encontrar
     DOx4
 de nuevo el sentido de la libertad
     REx4
 Sin ti no imagino volver a empezar 
SOLx2        REx2
 quiero saber que fue de ti

 mimx4                   DOx4
 Desde que no estas aqui solo me habita el dolor
 lamx4                  Rex4
 se me va la vida sin saber de ti.....
  Solx2   REx2
 amor

 Solo de Bajo con:  SOLx2 simx2 Dox2 mimx2 Dox2 Rex4

  Repite estribillo

Ahora para quedar mejor....

Frase1
e-------10--8--7--3--------------3---------------------
b--------------------3--0--------0---------------------
g--------------------------0--2------------------------
D------------------------------------------------------
A------------------------------------------------------
E--------------------------------3---------------------

Frase2             h
e----------2--5---9-10--8--7---0-----------------------
b----3--5----------------------1-----------------------
g------------------------------------------------------
D------------------------------------------------------
A------------------------------3-----------------------
E------------------------------------------------------

Solo de Bajo(arreglado para guitarra)

  SOLx2             simx2   DOx2           mimx2
e------------------------------------------------------
b------------------------------------------------------
g------------------------------------------------------
D------------------------------------------------------
A--2/109753----2/32-----3/53-----0---------------
E---------------3----------3--------3-----3--0---------

 Piano                       Bajo
              DOx2                    REx4
e-----3---5---7-7--8--3---|----------------------------
b-------------------------|----------------------------
g-------------------------|----------------------------
D-------------------------|----------------------------
A-------------------------|---3--5--7/109-------------
E------------------------------------------------------

Les aconsejo utilizar arpegios para tocar las primeras estrofas
de esa forma las frases 1 y 2 se lucen mejor

Eso es todo,que lo disfruten

cualquier duda les dejo mi mail:[email protected]

Para mi Amor Hermosa
                      Diego

Fuente original: LaCuerda
Colaborador original: Diego Segovia [[email protected]]

Que te parecio? Calificalo con estrellas!!

Rating: 6.7/10 (43 votos)

Este fichero es trabajo propio de su transcriptor y representa su interpretación personal de la canción. El material contenido en esta página es para exclusivo uso privado, por lo que se prohibe su reproducción o retransmisión, así como su uso para fines comerciales.


Deja tus comentarios:

Letras de Los nocheros
Letras de canciones | Musica Independiente