Acordes y tablaturas para guitarra

Acordes y Tablaturas
Usuario: Password:

Buscar:
Acordes y Tablaturas >> Letra L >> Acordes de Los nocheros >> La cerrillana
Acordes de La cerrillana, Los nocheros

La cerrillana

Los nocheros






do7.fa7.fam.mib.
 Fam       Do7   Fam                  Do7          Fam  Fa7
Con las pollera yuta, las trenzas largas, te ví pasar 
Sibm           Lab         Reb   Do7             Fam
ahí nomás a mi zaino en el guardapatio lo hice rayar.       
Sibm           Fam               Do7             Fam  
ahí nomás a mi zaino en el guardapatio lo hice rayar.

Desmonté del caballo, me puse cerca pa mosquetear. 
Con el alma en un hilo mi negra linda te vi bailar.  
Con el alma en un hilo mi negra linda te vi bailar.    

 Fam              Sibm                        Mib  Lab
¿Cómo olvidarte Cerrillos, si por tu culpa tengo mujer? 
Sibm         Fam              Do7         Fam
Morena cerrillana, con alma y vida te cantaré. 
Sibm           Fam           Do7           Fam
Todos los Carnavales para Cerrillos te llevaré. 
  
SOLO*

SEGUNDA PARTE CON MISMOS ACORDES DE LA PRIMERA

Luego siguieron zambas, bailamos juntos sin descansar, 
entre medio e los cuetes y serpentinas del Carnaval.
entre medio e los cuetes y serpentinas del Carnaval.


Miércoles de Ceniza, enharinados nos vio pasar, 
y en ancas de mi zaino, luego, a mi rancho fuimos a dar. 
y en ancas de mi zaino, luego, a mi rancho fuimos a dar. 

¿Cómo olvidarte Cerrilos...     

SOLO*

---13-13-13-13--13---11--9--8---8-8--6-4--3---3--8---6--4-3-4-------------------1ra
-----------------------------------------------------------------6-6--6-4-2-----
-----------------------------------------------------------------6-6--6-5-3-5---
-11-----------11---10---8---6---6-6--5-3--2---2--6--5---3-2-3---------------6---
--------------------------------------------------------------------------------5ta


-----4-8--6/106-5-6-------7--10-12-13-----1ra
----4--9--8------7-8----5-7----------------
---5-------------------5------10-12-13-----
--6-------------------5--------------------
-------------------------------------------5ta
*esto es muy facil y espero que le s guste
*Dudas o comentarios a fabian [email protected] 

Fuente original: LaCuerda
Colaborador original: cesar fabian vilca [[email protected]]

Que te parecio? Calificalo con estrellas!!

Rating: 5.1/10 (36 votos)

Este fichero es trabajo propio de su transcriptor y representa su interpretación personal de la canción. El material contenido en esta página es para exclusivo uso privado, por lo que se prohibe su reproducción o retransmisión, así como su uso para fines comerciales.


Deja tus comentarios:

Letras de Los nocheros
Letras de canciones | Musica Independiente