Acordes y tablaturas para guitarra

Acordes y Tablaturas
Usuario: Password:

Buscar:
Acordes y Tablaturas >> Letra M >> Acordes de Molotov >> Que no te haga bobo jacobo
Tablatura de Que no te haga bobo jacobo, Molotov

Que no te haga bobo jacobo

Molotov






b= bend         h= hammer
r= release      p= pull
/= slide up     x= palm mute
= slide down   
~= vibrato

Esta canción fue algo dificil de sacar, asi que puedo tener varios 
errores pero la trancripción suena bien para mi.

INTRO: Esta parte es algo dificil, necesitaras un poco de practica.
       Tambien se podria usar otra guitarra que toque los slides.
       Solo escucha el cd para aprender el ritmo. 

E|---------------------------------------------|
B|---------------------------------------------|
G|---------------------------------------------|
D|---------2/6-2-5-2--2/6-2-2-2/6-x-5-6-7-x-|
A|-5h7r0---2/6-2-5-2--2/6-2-2-2/6-x-5-6-7-x-|
E|---------x/x-0-3-0--x/x-0-0-x/x-0-3-4-5-0-|

E|---------------------------------------------|
B|---------------------------------------------|
G|---------------------------------------------|
D|---------2/6--2-5-2-2/6-2-2-2/6-x-7-6-5-x-|
A|-5h7r0---2/6--2-5-2-2/6-2-2-2/6-x-7-6-5-x-|
E|---------x/x--0-3-0-x/x-0-0-x/x-0-5-4-3-0-|

E|---------------------------------------------------|
B|---------------------------------------------------|
G|---------------------------------------------------|
D|---------/8~-2-5-2--/10~--2-2-2-/12~--x-5-6-7-x-|
A|-5h7r0---/8~-2-5-2--/10~--2-2-2-/12~--x-5-6-7-x-|
E|--------------0-3-0---------0-0-x--------0-3-4-5-0-|

E|---------------------------------------------|
B|---------------------------------------------|
G|---------------------------------------------|
D|---------/9~--2-5-2-/9~-2-2-/7~-x-7-6-5-x-|
A|-5h7r0---/9~--2-5-2-/9~-2-2-/7~-x-7-6-5-x-|
E|---------------0-3-0------0-0------0-5-4-3-0-|

1er VERSO: Esta parte podria ser el bajo pero asi la toco en guitarra.
           El ritmo es algo complicado. Solo se repite el riff hasta que
           cambia el ritmo.

E|--------------------------------------------------------------------------|
B|--------------------------------------------------------------------------|
G|--------------------------------------------------------------------------|
D|--------------------------------------------------------------------------|
A|-5h7r0-x-------x-x-x-x-x-----------5h7r0-x-------x-x-x-x-x----------------|
E|-------x-0-3-0-x-x-x-x-x-0-3-4-5-0-------x-0-3-0-x-x-x-x-x-0-5-4-3-0------|

BRIDGE:
                 *Este slide no se si lo toca otra guitarra, si es un 
E|---------------/21~-------/21~----------|   efecto de estudio o Tito
B|----------------------------------------|   es demasiado bueno.
G|----------------------------------------|
D|--2-2-5--2-3-2------2-3-2------2-3-5----|
A|--2-2-5--2-3-2------2-3-2------2-3-5-/8-|
E|--0-0-3--0-1-0------0-1-0------0-1-3----|

Esto se toca despues del primer bridge:

E|-------------------------------------------------|
B|-------------------------------------------------|
G|-------------------------------------------------|
D|-----------5-------------------------------------|
A|-7p5-7p5-7---7p5-7p5-7---------------------4-5h7-|
E|-----------------------53-5p3-5p3-5-3-5-7-------|

2do VERSO:

E|---------|
B|-----/11-|
G|------x--|
D|-----/8--|
A|---------|
E|-x-x-----| X8 veces

E|---------------------------------------|  Las "u" significan que tienes 
B|---------------------------------------|  que enmudecer las cuerdas y
G|---------------------------------------|  rascarlas con la uña para 
D|---------------------------------------|  conseguir ese sonido.
A|-5h7r0-u-u-------u-u-x-x-u-u-----------|
E|-------u-u-0-3-0-u-u-x-x-u-u-0-3-4-5-0-|
         
E|---------------------------------------|
B|---------------------------------------|
G|---------------------------------------|
D|---------------------------------------|
A|-5h7r0-u-u-------u-u-x-x-u-u-----------|
E|-------u-u-0-3-0-u-u-x-x-u-u-0-5-4-3-0-|

CORO:
         
E|-----------------------------|
B|-----------------------------|
G|-----------------------------|
D|-----------5-------7p5-------|
A|-7p5-7p5-7---7p5-7-----7p5-7-|
E|-----------------------------| X 3 veces

La ultima vez se toca asi:
E|---------------------------|
B|---------------------------|
G|---------------------------|
D|------------5-----------7~-|
A|--7p5-7p5-7---7p5-7p5-7----|
E|---------------------------|

Despues del coro hay una parte donde no toca la guitarra.
Depues de esa parte se toca el bridge sin los slides.
Luego otra vez el coro.

Este riff se toca una vez durante el coro:

E|--------------|
B|-11/12-10p8---|
G|------------9-|
D|--------------|
A|--------------|
E|--------------|

FINAL:

E|---------------|
B|---------------|
G|---------------|
D|-5-5-5-5-5-5-3-|
A|-5-5-5-5-5-5-3-|
E|-3-3-3-3-3-3-1-|

Si tienen algun comentario, corrección o duda escribanme.

Fuente original: LaCuerda
Colaborador original: Guillermo Lopez [[email protected]]

Que te parecio? Calificalo con estrellas!!

Rating: 4.5/10 (11 votos)

Este fichero es trabajo propio de su transcriptor y representa su interpretación personal de la canción. El material contenido en esta página es para exclusivo uso privado, por lo que se prohibe su reproducción o retransmisión, así como su uso para fines comerciales.


Deja tus comentarios:

Letras de Molotov
Letras de canciones | Musica Independiente