Enviado por: Anonimo
Agrandar Letra
Reducir Letra
Imprimir



Molotov, Gimme the power

Ke onda otra vez, ahora les mando lo 
ke supongo es la guitarra de la canción, no sé ke onda 
porke la rola la toy sacando con un MIDI bueno ahí les va


 ESTA PARTE SE TOKA CON DOUBLE PICKING O ALGO ASÍ, LA CUESTIÓN ES KE VA EN FRIEGA

e|-000000000000000000000------------------------------------------------|
B|----------------------444444444444444444-222222222222222222-111111111-|
G|----------------------------------------------------------------------|
D|----------------------------------------------------------------------|
A|----------------------------------------------------------------------|
E|----------------------------------------------------------------------| X2

ESTO YA VA A VELOCIDAD MASOMENOS NORMAL

e|------0----0------|
B|----2---2----2----|
G|--1------1-----1--|
D|------------------|
A|------------------|
E|------------------|

e|------------------|
B|------4-----4-----|
G|----4---4-----4---|
D|--4-------4-----4-|
A|------------------|
E|------------------|


e|------------------|
B|------2-----2-----|
G|----2---2-----2---|
D|--2-------2-----2-|
A|------------------|
E|------------------|


e|------------------|
B|------1----1------|
G|----1---1----1----|
D|--1-------1----1--|
A|------------------|
E|------------------|

Estos Riffs se tokan toda la canción abajo están los acordes por si los kieren tambn

    C#m             B              A            G#m

e|---4----|    e|---2---|     e|---0---|    e| --4---|
B|---5----|    B|---4---|     B|---2---|    B|---4---|
G|---6----|    G|---4---|     G|---2---|    G|---5---|
D|---6----|    D|---4---|     D|---2---|    A|---6---|
A|---4----|    A|---2---|     A|---0---|    D|---6---|
E|--------|    E|-------|     E|-------|    E|---4---|

Estos acordes pueden usarse en vez de los riffs ke puse suena igual
todo depende del gusto de kada kien.
Bueno está es mi tercera tab así ke si tienen recomendaciones dudas o comentarios mandeme un mail

Fuente original: LaCuerda
Colaborador original: Guillermo Alejandro Rodríguez Vizzuet [[email protected]]
Aviso: Este fichero es trabajo propio de su transcriptor y representa su interpretación personal de la canción. El material contenido en esta página es para exclusivo uso privado, por lo que se prohibe su reproducción o retransmisión, así como su uso para fines comerciales.

Califica esta canción


Comentarios en Facebook