Acordes y tablaturas para guitarra

Acordes y Tablaturas
Usuario: Password:

Buscar:
Acordes y Tablaturas >> Letra M >> Acordes de Molotov >> Frijolero
Tablatura de Frijolero, Molotov

Frijolero

Molotov






Esta es la vercion correcta, De letra y musica de el
primer sencillo de este disco.

E|---------------------------------||
B|---------------------------------||
G|---------------------------------||
D|---------------------------------||
A|----10-11-12-12-12-12-12-10-8----||
D|-12---------------------------12-||

Dm-Am-E-Am-x2

Los cambios en el resto de la cancion son : Am-E-Dm-Am
Los cambios del coro son: Dm-Am-E-Am-Dm-Am-E-Am

Yo ya estoy hasta la madre 
De que me pongan sombrero
Escuche entonces cuando digo
No me llames frijolero

De que exista algun respeto
No metamos las narices
Nunca inflamos la moneda
Haciendo Guerra a otros paises

----------------------------Entra guitarra 2 marcando-----
Te  pagamos con petoleo
e intereses nuestra deuda
Mientras tanto no sabemos
Quien se queda con la feria

Aunque nos hagan la fama
De que somos vendedores
De la droga que sembramos
Ustedes son consumidores

Coro:
Don¿t call me gringo, You fuckin beaner 
stay on your side of that goddamn river 
don¿t call me gringo, You beaner. 
No me digas beaner, Mr. Puñetero 
Te sacaré un susto por racista y culero. 
No me llames frijolero, Pinche gringo
puñetero.------(chingao)

Now I wish I had a dime 
for every single time 
I¿ve gotten stared down 
For being in the wrong side of town. 
And a rich man I¿d be 
if I had that kind of chips 
lately I wanna smack the mouths 
of these racists

Podras imaginarte desde afuera,
Ser un mexicano cruzando la frontera
Pensando en tu familia mientras que  pasas
Dejando todo lo que tu conoces atras
Tuvieras tu que esquivar las balas
De unos cuantos gringos rancheros
Les seguiras diciendo good for nothing 
wetback? y tuvieras tu que empezar de cero

Now why don¿t you look down 
to where your feet is planted 
That U.S. soil that makes you take shit for granted 
If not for Santa Ana, just to let you know 
That where your feet are planted would be Mexico 
Correcto!

Coro:x1

Requinto
E|---------------------------------||
B|---------------------------------||
G|---------------------------------||
D|---------------------------------||
A|----10-11-12-12-12-12-12-10-8----||
D|-12---------------------------12-||

E|-------------------12-10-8------------------------------------||
B|-13-12-13-12-13-12--------------10-13-12-13-12-13-12-8-10-----||
G|---------------------------9-12-------------------------------||
D|--------------------------------------------------------------||
A|--------------------------------------------------------------||
D|--------------------------------------------------------------||

E|---------------------------12-10-8---------------------------------------||
B|------10-13-12-13-12-13-12--------------10-13-12-13-12-13-12-13-12-13-15-||
G|-9-12------------------------------9-12----------------------------------||
D|-------------------------------------------------------------------------||
A|-------------------------------------------------------------------------||
D|-------------------------------------------------------------------------||

E|---------------------------------||
B|---------------------------------||
G|---------------------------------||
D|---------------------------------||
A|----10-11-12-12-12-12-12-10-8----||
D|-12---------------------------12-||
 
Coro:x1

Fuente original: LaCuerda
Colaborador original: Jose Arturo Jimenez Ostos [[email protected]]

Que te parecio? Calificalo con estrellas!!

Rating: 7.1/10 (141 votos)

Este fichero es trabajo propio de su transcriptor y representa su interpretación personal de la canción. El material contenido en esta página es para exclusivo uso privado, por lo que se prohibe su reproducción o retransmisión, así como su uso para fines comerciales.


Deja tus comentarios:

Letras de Molotov
Letras de canciones | Musica Independiente