Acordes y tablaturas para guitarra

Acordes y Tablaturas
Usuario: Password:

Buscar:
Acordes y Tablaturas >> Letra M >> Acordes de Molotov >> Chinga tu madre
Bajo de Chinga tu madre, Molotov

Chinga tu madre

Molotov






Intro (hasta 0:14)         
G|-----------------------------------------
D|--------55555--------------55555---------
A|------7-------7-8-7------7-------7-8-7---  x3
E|---/7-----------------/7-----------------

Riff 1 (0:15 - 1:02)         
G|--------------------------------------
D|--------5------------------5----------
A|----------7-6--4-6---------55-7-8-----
E|---7-7----------------7-7-------------
Se repite varias veces y luego hay una pausa.

	  (1:05 – 1:23)
G|-----------------------------------------
D|--------55555--------------55555---------
A|------7-------7-8-7------7-------7-8-7---  
E|---/7-----------------/7-----------------

Riff 1 (1:25 - 1:53)         
G|--------------------------------------
D|--------5------------------5----------
A|----------7-6-5-4-6----------55-7-8---
E|---7-7----------------7-7-------------

	  (1:55 – 2:13)          
G|-----------------------------------------
D|--------55555--------------55555---------
A|------7-------7-8-7------7-------7-8-7---  
E|---/7-----------------/7-----------------
no hay bajo hasta 2:25

	   (2:25 – 2:33)
G|--------------------------------------
D|--------5------------------5----------
A|----------7-6-5-4-6----------55-7-8---
E|---7-7----------------7-7-------------

	    (2:33)
G|-------/5-3---------3------------
D|-----5-------5-3-----------------
A|---3-------------55--------------   Se toca muy rápido
E|---------------------------------

* (2:35 – 2:54) Intro 

Riff 3 (2:54 – 3:05)
G|-------55555-------------55555---------
D|-----7-------7-8-7-----5-------7-8-7---
A|---5-----------------5-----------------
E|---------------------------------------

* (3:05 en adelante) Intro 


Eso es todo.
Comentarios o sugerencias: [email protected]

Fuente original: LaCuerda
Colaborador original: javier thellaeche [[email protected]]

Que te parecio? Calificalo con estrellas!!

Rating: 5.1/10 (30 votos)

Este fichero es trabajo propio de su transcriptor y representa su interpretación personal de la canción. El material contenido en esta página es para exclusivo uso privado, por lo que se prohibe su reproducción o retransmisión, así como su uso para fines comerciales.


Deja tus comentarios:

Letras de Molotov
Letras de canciones | Musica Independiente