Enviado por: Anonimo
Agrandar Letra
Reducir Letra
Imprimir


Otras Versiones de Como la cigarra:

Mercedes sosa, Como la cigarra

Capodastro en el segundo traste...se toca en MI
Es mi interpretación de la canción lo más parecido que pude sacarla


                                       Cuantas veces me ma-
--0--------0----------0----------0--------0--------0---------------------
-------------------------------------------------------------------------
-------------------------------------------------------------------------
--------4--------4---------------------4--------4------------------------
-----2--------2---------------------2--------2---------------------------
--4--------5----------4-5-4-2----4--------5--------4-5-4-2---------------


  taron,cuantas...     morí, sin embargo estoy aquí              resuci-
--0--------0--------0-----0--------0--------0-----------------0----------
-----------------------------------------------------------------------2-
--------------------------------------------------0--------0-------------
--------4--------4--------------4--------4--------------4-----------1----
-----4--------4--------4-----3--------3--------3-----3-----------0-------
--4--------4--------4-----4--------4--------4-----2--------2--0--------0-


 tando                       doy...        desgracia y a...            pu-
------------------------------------------------4---------------4--------
-0--------0---------0---1-----------------1-------------6----------------
---------------------2-----------2---------------------------------------
-------2--------2-----1-------0--------0-----------4-------4-------4-----
----2--------2---------2---2--------2--------2--4-----4-4-----4-4--------
-0--------0-------------0--------0--------0------------------------------


ñal, porque me mató tan mal...                              y seguí can-
-------------------------------------------------------------------------
--5----------------5------------------------------------------2----------
----------6---------------4--------4-2--------2-1-------1----------------
-----4-------4--------4------2----------2----------2-------2-----2-------
--6-----6-6-----6--6------------------------------------0-----0-----0----
--------------------------2-----2----------2----------2-2-----2-----2----


  tando....                                   cantando...
--0--------0--------0------0-------------0----0---
--------------------------------------------------
--------------------------------------------------
--------2--------2----------1---2--------1----1---
-----0--------0--------0-----3-----3-----0----0---
--0--------0--------0---------2-------2--0----0---


                     E                     E7
Tantas veces me mataron, tantas veces me morí
                    D E       A  LAM7
sin embargo estoy aquí resucitando
A7/Bb               g#                C#7/D
gracias doy a la desgracia y la mano con puñal
                    f#    B7       E    D  E    
porque me mató tan mal y seguí cantando.

     A               B7    
Cantando al sol como la cigarra
g#                  c#
después de un año bajo la tierra
f#                B7    A                    B7
igual que sobreviviente que vuelve de la guerra.


tantas veces me borraron, tantas desaparecí
a mi propio entierro fuí sola y llorando,
hice un nudo en mi pañuelo pero me olvidé después
que no era la única vez y seguí cantando.

Cantando al sol . . . etc.

Tantas veces te mataron, tantas resucitarás
cuantas noches pasarás desesperando,
y a la hora del naufragio y de la oscuridad
alguien te rescatará para ir cantando.

Cantando al sol . . . etc.


Los acordes que tienen un / quieren decir que tienen el 
bajo en esa nota 
C#7/D = do sostenido siete con bajo en Re
LAM7= la con sétima mayor

Fuente original: LaCuerda
Colaborador original: Reinaldo González Zúñiga [[email protected]]
Aviso: Este fichero es trabajo propio de su transcriptor y representa su interpretación personal de la canción. El material contenido en esta página es para exclusivo uso privado, por lo que se prohibe su reproducción o retransmisión, así como su uso para fines comerciales.

Califica esta canción


Comentarios en Facebook